Портал для гитаристов
gtars.ru

Project 86 — One Armed Man

Вариант 1

 Song: One Armed Man (Play On)
Artist: Project 86
Album: Drawing Black Lines
Drop-D Tuning

I noticed that there were no tabs that were right (or complete) on this awesome song
by one of the best bands out there.  This should be exactly correct.

Intro/Verse x7 (x2 Intro, x5 Verse)
G-------------------------------------------|
D-------------------------------------------|
A---5----5-5--------------5---5-5------5-333|
D-0---00-----3333-5555--0--00-----3333------|

Chorus x4
G---------------------------------|
D---------------------------------|
A-1111-3333-----5p3-3h5--3h5--3h5-|
D------------00-------------------|

Verse x4
Chorus x4 

Interlude
G---------------------------------|
D---------------------------------|
A-0-0-0-0-0-0-0-0-0-0-0-0-0-0-0-0-|
D---------------------------------|

Bridge A x4
G----------------------------------|
D----------------------------------|
A-5---------------------------3333-|
D---0--0-333--0-333----0--3333-----|

Bridge B
G-------------------------------------|
D-------------------------------------|
A-5__---3__--------------3__----------|
D----0__----5-5-3-0__-3__----55555555-|

End Riff x16 (fast)
G-----------------|
D-----------------|
A---5-------------|
D-0---0-0-3-5-6-5-|

Bridge A x4
End Riff x16
Chorus x4, then:
G---------------------|
D---------------------|
A-1111-3333-1111-3333-|
D---------------------|

Play End Riff until end, then play:
G----|
D----|
A-55-|
D----|

Well, that's it!  Pretty cool song, not hard to play, and, even better, it's by Project! God Bless! 
Аккорд DАккорд AАккорд B

Вариант 2

 Song: Оnе Armed Man ( Play Оn )
Artist: Project 86
Album: Drawing Black Lines
Tabbed By: Tommy ( punk4christ73@aol.com )

Drop D tuning.

Intro/Verse

G|---------------------------------
D|---------------------------------
A|---------------------------------
D|-О-2-0-2-033-455--0-2-0-2-455-200

chorus
G|--------------------------------------
D|--------------------------------------
A|--------------------------------------
D|-5-5-5-5-7-7-7-7-4-2-h4-2-h4-2-h4-2-h4

Bridge
G|---------------------------------
D|---------------------------------
A|-----------------------------3-5~
D|-0000000-2-3-2-3-0000000-2-3-----
                                    (last time)
G|-------------------------------|-----------------
D|-------------------------------|-----------------
A|---------------------------3-5~|--3-----------3--
D|-0-2-3-2-3-0000000-2-3-2-3-----|3---5-5-3-0-3---5
then...          (end)
G|--------------|----
D|--------------|----
A|-0-3----------|-5-5
D|-----0-3-5-3-0|----
 
Аккорд D

Вариант 3

 ----------------------------------------------------------------------
			     one armed man - project 86
----------------------------------------------------------------------

/- slide
*- palm mute

riff 1:
e|--------------------------------------------------------------------
B|--------------------------------------------------------------------
G|---------7/10-10-10/12-12----------7/10-10-10/5-5-------------------
D|-5/7-0-7-------------------5/7-0-7----------------------------------
A|-3/5-0-5-5/8--8--8-/10-10--3/5-0-5-5/8--8--8-/3-3-------------------
D|-----0-------------------------0------------------------------------
       *                         *
riff 2:
e|--------------------------------------------------------------------
B|--------------------------------------------------------------------
G|----------------------------------------(1,2,3)----(4)--------------
D|-8888-10-10-10-10--00-7-5/7-0-5/7-0-5/7-(000)-----(0-7)-------------
A|-8888-10-10-10-10--00-5-3/5-0-3/5-0-3/5-(000)-----(0-5)-------------
D|-8888-10-10-10-10--00-------0-----0-----(000)-----(0--)-------------
                     **       *     *      ***       *
2nd riff 2:
e|--------------------------------------------------------------------
B|--------------------------------------------------on the last one---
G|-----------------------------------------------------play this------
D|-8888-10-10-10-10--00-7-5/7-0-5/7-0-5/7-000---8888-10-10-10-10--7---
A|-8888-10-10-10-10--00-5-3/5-0-3/5-0-3/5-000---8888-10-10-10-10--7---
D|-8888-10-10-10-10--00-------0-----0-----000---8888-10-10-10-10--7---
                     **       *     *     ***
riff 3:
e|--------------------------------------------------------------------
B|--------------------------------------------------------------------
G|-----------------------------5555-7---------------------------------
D|-(0)-0-3333x3333-0000-0-3333----------------------------------------
A|-(0)-0-3333x3333-0000-0-3333-3333-5---------------------------------
D|-(0)-0-3333x3333-0000-0-3333----------------------------------------
                   ****             ^dont play this octave just go
riff 4:                            straight into riff 4 (on last one)
e|--------------------------------------------------------------------
B|--------------------------------------------------------------------
G|--------------------------------------------------------------------
D|-7--3--5--5--0-3--7--3--5--55555555---------------------------------
A|-5--3--3--5--0-3--5--3--3--55555555---------------------------------
D|----3-----5--0-3-----3-----55555555--------------------------------
                             ********
riff 5: the fun part
e|--------------------------------------------------------------------
B|--------------------------------------------------------------------
G|-5/7----------------------------------------------------------------
D|-----xx-3/5/65-----------------------------------------------------
A|-3/5-xx-3/5/65-----------------------------------------------------
D|-----xx-3/5/65-----------------------------------------------------
   after repeating this a couple times it goes back into riff 3
   then it come back to riff 5, then goes again to riff 2

e|--------------------------------------------------------------------
B|--------------------------------------------------------------------
G|--------------------------------------------------------------------
D|-8888-10-10-10-10---------------------------------------------------
A|-8888-10-10-10-10---------------------------------------------------
D|-8888-10-10-10-10---------------------------------------------------
  on the last riff 2 this is repeated and leads into the last riff 5

e|-----------------|--------------------------------------------------
B|-----------------|--------------------------------------------------
G|-5/7-------------|--77----------------------------------------------
D|-----xx-3/5/65--|--------------------------------------------------
A|-3/5-xx-3/5/65--|--55----------------------------------------------
D|-----xx-3/5/65--|--------------------------------------------------
                      ^end on this

well, like most of my tabs you have to listen to the song to put it all
together. what i like about this song is you never stop playing, maybe
thats why its called (play on). hope this helps all the beginners and
project 86 fans out there.
- josh
====================================================================== 

Вариант 4

 Alright, I made a tab that is actually correct. All the other ones are wrong.
Go ahead, play away.

 DADGBE tuning (dropped d)


E|---------------------------------------------
B|---------------------------------------------
G|---7-----7----10--10--10--10--12--12--12--12-
D|0--7--0--7----10--10--10--10--12--12--12--12-
A|0--5--0--5-----8---8---8---8--10--10--10--10-
D|0-----0--------------------------------------

E|---------------------------------------------
B|---------------------------------------------
G|---7-----7----10--10--10--10-----------------
D|0--7--0--7----10--10--10--10--10--10--10--10-
A|0--5--0--5-----8---8---8---8--10--10--10--10-
D|0-----0-----------------------10--10--10--10-

You can figure out the rest. It's not hard. 

Вариант 5

 here is the intro for all you p86 fans out there, cause none of the other intro were correct:

This song is really easy just get the strumming down and you have it, have fun with it

Make sure to pick up the new project 86 CD 'Truthless Heroes' it came out on sept. 24!!!!

DADGBE Tuning

E|----------------------
B|----------------------
G|--7---7-9-9-9-12-12-12
D|0-7-0-7-9-9-9-12-12-12
A|0-5-0-5-7-7-7-10-10-10
D|0---0-----------------

E|-------------------
B|-------------------
G|--7---7-9-9-9-5-5-5
D|0-7-0-7-9-9-9-5-5-5
A|0-5-0-5-7-7-7-3-3-3
D|0---0-------------- 
Аккорд CD