Портал для гитаристов
gtars.ru

Project Wyze — Hush

 Here are some tabs I figured out myself for Hush. I'm not sure if there right but just e-mail me if u have any questions @ wet_willy45@hotmail.com

(Drop D Tuning)

----------------------------------------------------
----------------------------------------------------
----------------------------------------------------
---3-3-3--3-3-3---3--4---3-3-3--3-3-3--3--1---------
---3-3-3--3-3-3---3--4---3-3-3--3-3-3--3--1---------
---3-3-3--3-3-3---3--4---3-3-3--3-3-3--3--1---------
You play this until he starts singing the verse.

Chorus: 
------------------------------------------------------
------------------------------------------------------
------------------------------------------------------
---5-5--3-3--1-1--0-0--x--3---------------------------
---5-5--3-3--1-1--0-0--x--3---------------------------
---5-5--3-3--1-1--0-0--x--3---------------------------

All the other parts of this song are just little things here and there. You can try and figure it out yourself.  
Аккорд D