Портал для гитаристов
gtars.ru

Project Wyze — Nothings What It Seems

 Nothing's What it seems
by Project Wyze

tuning = Drop D

I’ve timed almost all the gtr. 2 stuff to the gtr. 1 stuff overhead.
I’m pretty sure this is right.

Intro - w/clean tone
Gtr. 1
------------------------------------------------------------
------------------------------------------------------------
--9---9--9--10---10---10---12----12----12----12----12----12-
---9---9------10---10--------12----12----------12----12-----
-7--7---7--8----8----8---10----10----10----10----10----10---
------------------------------------------------------------

Gtr.2
-------------
-------------
-------------
-----2-------
-----2-------
-----2-------

verse – w/ distortion
gtr. 1
------------------------------------------------------------
------------------------------------------------------------
--9---9--9--10---10---10---12----12----12----12----12----12-
---9---9------10---10--------12----12----------12----12-----
-7--7---7--8----8----8---10----10----10----10----10----10---
------------------------------------------------------------

Gtr. 2
------------------------------------------------------------
------------------------------------------------------------
--9--------10--12121212-----12121212/141414-----------------
------------------------------------------------------------
--7--------8---10101010-----10101010/121212-----------------
------------------------------------------------------------

Chorus Riff - w/distortion
Gtr. 1
---------------------------------------------
---------------------------------------------
-4-------7-------6-----66---77---77----------
-2--xxxx-5--xxxx-4--xx-44-x-55-x-55----------
-2--xxxx-5--xxxx-4--xx-44-x-55-x-55----------
-2--xxxx-5--xxxx-4--xx-44-x-55-x-55----------
Gtr. 2
------------------------------------------------------------
------------------------------------------------------------
-4--xxxx-8--xxxx-7--xx-77-x-88-x-88-------------------------
-4--xxxx-8--xxxx-7--xx-77-x-88-x-88-------------------------
-2--xxxx-6--xxxx-5--xx-55-x-66-x-66-------------------------
------------------------------------------------------------



Bridge riff - w/distortion (after 2x, gtr 2 comes in
With gtr.1 verse riff but distorted for original version)
Gtr.1
-------------------------------------------------
-------------------------------------------------
-2-------3----------5----------------------------
-2-------3----------5----------------------------
-2-------3----------5----------------------------

if you play the 6 and Ѕ min. version I do, then there’s a little breakdown where
the DJ is scratching over a sample that goes “come like a guillotine” and there’s
a little breakdown.

------------------------------------------------------------
------------------------------------------------------------
------------------------------------------------------------
----2--2-2--2--2-2--1--1-1--1--1-1--------------------------
--22-22-2-22-22-2-11-11-1-11-11-1--------------------------- x6
------------------------------------------------------------

and on the 6th time, Gtr. 2 does a pick slide, but somehow gets it really high
pitched……. Not sure there. Then just pick up with the bridge.


and that’s about all you need.

Questions, comments, hate mail, don’t send them to me. Send them to someone who
cares. I’m almost 100% sure the song is right.  the only thing I’m really not
sure about is the way I play the chorus……. But my band plays like that and it
sounds fine. 
Аккорд D

Project Wyze — Nothings What It Seems

 Project Wyze
Nothings what it seems
Standard tuning(B,E,A,D,G)
Mapped by:Yakalien and C. Teed
Posted By:Yakalien


There is very little bass on the intro or the verse(Mostly vocals and guitars)

verse(start when you hear the drums start)    x12
G-----------------
D-----------------
A-----------------
E-0-0-0-0-0-0-0-0-
B-----------------

Chorus                                        x3 
G-----------------------------------------------
D-----------------------------------------------
A-----------------------------------------------
E-0^-0-0-0-0-3^-3-3-3-3-2^-2-2-2-2-3-3-3-*-3-3-3
B-----------------------------------------------

First verse

Chorus

Verse(Type 2)                                 x3            
G-----------------------------------------   
D-------------------------------------3-2-
A-----------------------------------------
E-0-0-0-0-0-1-1-1-1-1-3-3-3-3-3-3-3-3-----
B-----------------------------------------

Chorus

Well that's it. Hope you like it
Just a note ^=let note resonate
            *=rest
E-mail me with any corrections yakalien@hotmail.com 
Аккорд GАккорд C

Project Wyze — Nothings What It Seems

 
Nothing's What it seems
by Project Wyze

tuning = Drop D

Intro/Verse - w/clean tone
------------------------------------------------------------
------------------------------------------------------------
--9---9--9--10---10---10---12----12----12----12----12----12-
---9---9------10---10--------12----12----------12----12-----
-7--7---7--8----8----8---10----10----10----10----10----10---
------------------------------------------------------------

Chorus Riff - w/distortion
--------------------------------------------
--------------------------------------------
--------------------------------------------
-22-xxxx-55-xxxx-44-xx-4-x-55-x-55----------
-22-xxxx-55-xxxx-44-xx-4-x-55-x-55----------
-22-xxxx-55-xxxx-44-xx-4-x-55-x-55----------

Bridge riff - w/distortion (after 2x, gtr 2 comes in
                   with the verse riff but distorted)
-------------------------------------------------
-------------------------------------------------
-2-------3----------5----------------------------
-2-------3----------5----------------------------
-2-------3----------5----------------------------

End song on this note
---------------------------------
---------------------------------
---------------------------------
-2-------------------------------
-2-------------------------------
-2-------------------------------


If you have any questions or comments, email me at
silverchair_surfing_bird@hotmail.com



_________________________________________________________________
Get your FREE download of MSN Explorer at http://explorer.msn.com/intl.asp



 
Аккорд D

Project Wyze — Nothings What It Seems

 Project Wyze, Nothing`s what it seems.
 Tabbed by spider, w_h_a_d_d_u_p@hotmail.com.
  

Stanard Tuning

soft part / intro / verse
||--0---0---0-------1---1---1-------3---3--3----
||0---0---0---0-0-1---1---1---1-1-3---3---3--3-3
||----------------------------------------------
||----------------------------------------------
||----------------------------------------------
||----------------------------------------------

heavy part/chorus (one, two, one, two, im a shark infested ocean...)
||----------------------------------------------
||----------------------------------------------
||----------------------------------------------
||-2-2-x-x-x-x-2-2-x-x-x-x-2-2-x-x-2-2-2-2------
||-2-2-x-x-x-x-2-2-x-x-x-x-2-2-x-x-2-2-2-2------
||-0-0-x-x-x-x-3-3-x-x-x-x-2-2-x-x-3-3-2-3------

if i missed anything email me. 
:: Ultimate Guitar Archive :: 
http://www.ultimate-guitar.com