Портал для гитаристов
gtars.ru

Propagandhi — A Public Disservice Announcement From Shell

 -----------------------------------------------------------------------------
  A PUBLIC DIS-SERVICE ANNOUNCEMENT FROM SHELL    PROPAGANDHI     
-----------------------------------------------------------------------------

blythe@pathcom.com              > MEANS STRUM


G]---7-----7---7-----7---7-----7-------]
D]-5---------5---------5---------5-5-5-]
A]-----5-5-------5-5-------5-5---------]
E]-------------------------------------]

OTHER PART(you'll know when to play it)
G]---9-----9---5-----5---7-----7-------]
D]-7---------3---------5---------5-5-5-]
A]-----7-7-------3-3-------5-5---------]
E]-------------------------------------]

END
G]-------------------9-9-9-]
D]-7-7-7-2-2-2-------------]
A]-------------2-2-2-------]
E]-------------------------]




 
Аккорд A