Портал для гитаристов
gtars.ru

Propagandhi — Contest Song

 Band: Propagandhi 
Album: Where Quantity is #1 
Song: Contest Song 
Tuning: Standard 

x = palm mute 
> = strum 
* = hold note 

Intro X 4 

G]----------- 
D]----------- 
A]-4>-2>-0>-- 
E]----------- 

Verse X 2 

G]----------| G]-----------------------------------------|
D]----------| D]------------------------2---2---2---2----| 
A]-4>-2>-0>-| X 2 A]-0>----0>----0>-----------2-------2--| X 1 
E]----------| E]----4>----4>----4>--2>-------------------|

Alternate Verse Ending 

G]-------------| 
D]---2--2------| 
A]--------4>-2>| X 4 
E]-0-----------| 

Bridge 
(One more sunset...) 

x x x 
G]------------------| 
D]------------------| 
A]-3------3-3-3*----| 
E]----0*----------0*| 

Verse 

End 

G]---------| 
D]---------| 
A]-------2*| 
E]-5*-4*---| 

and then the crazyiness begins... 

G]--------| 
D]--------| 
A]---0--1-| 
E]-0------| 

Not too sure about the crazy end part, but it's all correct besides that. 
The verse ending alternates the second time, just with rythme. End the song 
on an E, preferably the E string itself...ROCK ON! 
Аккорд E