Портал для гитаристов
gtars.ru

Propagandhi — Haillie Sellasse Up Your Ass

 -------------------------------------------------------------------------------
	        HAILLIE SELLASSE, UP YOUR ASS - Propagandhi
-------------------------------------------------------------------------------

By: Gareth Hancock

Intro

e|---------------------------------------------------------------------------|
B|---------------------------------------------------------------------------|
G|--------23-----------32----------------------------------------------------|
D|5---3---23---3---3---32-----------x4---------------------------------------|
A|5---3---45---3---3---54----------------------------------------------------|
E|7---5--------1---5---------------------------------------------------------|

Ska riff
stress the e, b, g strings on each chord.

e|55--33--11--33---------------------------------------------------------------------|
B|55--33--11--33---------------------------------------------------------------------|
G|66--44--22--44---------------------------------------------------------------------|
D|77--55--33--55---------------------------------------------------------------------|
A|77--55--33--55---------------------------------------------------------------------|
E|55--33--11--33---------------------------------------------------------------------|

Breakdown after 'merley keeps you in line, in line.'

e|---------------------------------------------------------------------------|
B|---------------------------------------------------------------------------|
G|---6---------4---6---------------------------------------------------------|
D|--7-7----5--4---7-7---5-7-9------------------------------------------------|
A|-7---7--5-22---7---7-5-5-7-------------------------------------------------|
E|5-----33------5-----3------------------------------------------------------|

Sorry, havn't worked out the solo at the end, but i'm working on it so i'll post it when it's done.

Have fun and thrash on.

questions, corrections, marriage proposals/coupons for free face lifts to: gazh46@hotmail.com 

Propagandhi — Haillie Sellasse Up Your Ass

 ------------------------------------------------------------------------
            HAILLIE SELLASSE, UP YOUR ASS      PROPAGANDHI
------------------------------------------------------------------------

VERSE
PART A
G]---------------------------------------------------------]
D]---------------------------------------------------------]
A]-------------------------2-3-------------------------3-2-]x3
E]-5-5-5-5-5-5-5-5-3-3-3-3-----1-1-1-1-1-1-1-1-3-3-3-3-----]

PART B
G]---------------------------------------------------------]
D]---------------------------------------------------------]
A]-------------------------2-3-----------------3-3-3-3-3-2-]
E]-5-5-5-5-5-5-5-5-3-3-3-3-----1-1-1-1-1-1-1-1-------------]

VERSE: PART A (x6)
BRIDGE
G]-------------------------------------------------------------]
D]---------------------------------------------------5---------]
A]-------------------------2-3-------------------------5-7-5-3-]x2
E]-5-5-5-5-5-5-5-5-3-3-3-3-----5-5-5-5-5-5-5-5-3-3-3-----------]

VERSE: PART A (x7)
BRIDGE
VERSE: PART A (x5)
       PART B

TABBED BY FUNKEL


 
Аккорд AАккорд B