Портал для гитаристов
gtars.ru

Propagandhi — Showdown

 -----------------------------------------------------------------------------
			     Showdown(G.e.p.) - Propagandhi
-----------------------------------------------------------------------------
Email: davidbrown@hotmale.com

Tuning: normal

Main Riff
e|---------------------------|
B|---------------------------|
G|---------------------------|
D|5xxx-2-5-2----4-7----2-5---|
A|5xxx-2-5-2--5------3-------|
E|3xxx-0-3-0-----------------|

Another Part
e|----------------------|
B|----------------------|
G|1212121212-7777777-5--|
D|1212121212-7777777-5--|
A|1010101010-5555555-3--|
E|----------------------| 
Аккорд G

Propagandhi — Showdown

 ------------------------------------------------------------------------
                       SHOWDOWN      PROPAGANDHI
------------------------------------------------------------------------

> MEANS STRUM

INTRO
G]-----------------------]
D]-----------------------]
A]-----------------5>-3>-]x4
E]-3-3-3-0-0-0-3-0-------]

CHORUS
G]-------------------------------------]
D]------------------------------3-5----]
A]-----------5>-3>-----------5>-----3>-]x7
E]-3>-0>-3-0-------3>-0>-3-0-----------]

VERSE
G]-------------------------------]
D]-------------------------------]
A]-------3>-5>-------------3>-5>-]
E]-0>-3>-------5-5-3-0>-3>-------]

PRE-CHORUS
G]----------]
D]----------]
A]-10>-5>-3-]x4
E]----------]

CHORUS x6
VERSE
PRE-CHORUS
CHORUS x5
END
G]------------]
D]------------]
A]-10>-5>-3---]
E]----------3-]

TABBED BY FUNKEL