Портал для гитаристов
gtars.ru

Propagandhi — Ska Sucks

Вариант 1

 -------------------------------------------------------------------------------
			     SKA SUCKS - Propagandhi
-------------------------------------------------------------------------------

By: William Learned (mulletxcore@hotmail.com)

INTRO:                X3
G|----------------------|----------------------------------------------------|
D|-----4--4p5h----------|----4--4p5h-----------------------------------------|
A|--555-55-------2--0040|-555-55-------2--0>---------------------------------|
E|-------------33-3-----|------------33-3------------------------------------|

VERSE (WHERE VOCALS COME IN):
G|---------------------------------------------------------------------------|
D|-0457-0457------------0457-0457--------------------------------------------|
A|----------------0457-----------------0>------------------------------------|
E|-----------3202-----------------3202---------------------------------------|

G|---------------------------------------------------------------------------|
D|-0457-0457-----------0457-0457-----------0457-0457-------------------------|
A|----------------0457----------------0457----------------0457---------------|
E|-----------3202----------------3202----------------3202--------------------|

G|---------------------------------------------------------------------------|
D|-0457-0457-----------0457-0457-----------0457-0457-------------------------|
A|----------------0457----------------0457----------------0457---------------|
E|-----------3202----------------3202----------------3202--------------------|

G|---------------------------------------------------------------------------|
D|-0457-0457-----------0457-0457-----------0457-0457-------------------------|
A|----------------0457----------------0457----------------0457---------------|
E|-----------3202----------------3202----------------3202--------------------|

INTERLUDE (RUDY):
G|---------------------------------------------------------------------------|
D|---------------------------4-7--4-7--4-7-0457-0457-------------------------|
A|--5-------5-------5-------5----5----5-------------------0457---------------|
E|---------------------------------------------------3202--------------------|
VERSE FAST:				    X4 END MEDLEY:
G|----------------------------------|--------8-------------------------------|
D|----------------------------------|-888450---------------------------------|
A|--5>---------5>---------5>--------|----------------------------------------|
E|------333545-----333545-----333545|----------------------------------------|

===============================================================================
Email me to tell me how bad it is or where I messed up. This is my first attempt at 
tabbing a song.
 

Вариант 2

 Band:Propagandhi
Song:Ska Sucks
Tabbed by Toss

Intro
                    ~
GI------------------------------------------I
DI-------4------4h5p4-----------------------I
AI-5-5-5----5-5--------------2----------4---I
EI-----------------------3-3---3----5-5---5-I

vadonke@hotmail.com
 

Вариант 3

 ----------------------------------------------------------------------------
                        SKA SUCKS - PROPAGANDHI
----------------------------------------------------------------------------
By:ovuori@nettilinja.fi

intro:
G|------------------------------------------------
D|-----------4------4h-5b-4----------------------
A|----5-5-5-----5-5---------------2---------4-----
E|----------------------------3-3---3---5-5---5---

ska part:
G|---------------------------------------------
D|-------4-5-7----4-5-7------------------------ this is the main thing but
A|-----5--------5------------2------7-5-4------ you can improvise some own
E|-----------------------3-3---3--5------------ line in sometimes when you
                                                when you play it
bridge:
g -------------------------------------------------------------------------
d --------------------4-7-----4-7-----4-7----4-5-7---4-5-7-----------------
a --5---5---5---5---5-------5-------5------5-------5-----------2------7-5-4
e ---------------------------------------------------------3-3---3--5------

fast part:
G|------------------------------- first it goes like this but
D|------------------------------- little longer it just
A|---5--------------------------- D-G-A
E|------3-5-3-5-3----------------

outro:
G -------------7/0-----------------
D --7-7---4------------------------
A ------7---5----------------------
E --------------------------------- 
Аккорд G-AАккорд GАккорд DАккорд AАккорд E

Вариант 4

 ---------------------------------------------------
                     SKA SUCKS - Propagandhi
----------------------------------------------------

BASS LINE
G-----------------------------------|
D-------4-----4h5p4-----------------|
A-5-5-5---5-5--------------2--------|
E--------------------3-3-3---3-/5-5-|

SKA CHORDS
e-5-5-5-5-3-3----5-5-------------------|
B-7-7-7-7-3-3----5-5-------------------|
G-7-7-7-7-4-4----6-6-------------------|
D-7-7-7-7-5-5----7-7-------------------|
A-5-5-5-5-5-5----7-7-------------------|
E---------3-3-//-5-5-------------------|

INTERLUDE
e--------------------------------------------------|
B--------------------------------------------------|
G--------------------------------------------------|
D--5-4~--7-5-4~--/7--7-7-9-11-9-7--7-7-9-11-9-7----|
A--------------------------------------------------|
E--------------------------------------------------|

e--------------------------------------------------|
B------------------5---3---7-----------------------|
G--------------------------------------------------|
D-4-7-5-4-5-4--------------------------------------|
A-------------5------------------------------------|
E--------------------------------------------------|

  .double.pick...............
e-10-10--9-9--7-7--5-7-5-3-----------------|
B------------------------------------------|
G------------------------------------------|
D-----------------------------pickslide----|
A------------------------------------------|
E------------------------------------------|

Then its just D G A power chords


================================================== 
Аккорд DАккорд GАккорд A