Портал для гитаристов
gtars.ru

Propagandhi — True

 -----------------------------------------------------------------------------
                     TRUE   PROPAGANDHI
-----------------------------------------------------------------------------

blythe@pathcom.com              > MEANS STRUM

PART A
G]----------]   [-------]
D]----------]   [-------]
A]----------]x6 [-------]x3
E]-9>-7>-5>-]   [-5>-4>-]

PART B
G]-----------------]
D]-----------------]
A]----7---7--7---7-]
E]-2>---7------7---]

PART A 

G]--------------------]
D]--------------------]
A]----7-7-7-4-4-4-5---]
E]-2>---------------7-]

one more sunset.....
G]----------------]
D]----------------]
A]----7---------7-]
E]-9-----9--9-9---]

PART A

PART B

OUTRO
G]---------]
D]---------]
A]-------7-]
E]-7-4-5---]



 
Аккорд AАккорд B