Портал для гитаристов
gtars.ru

Puddle Of Mudd — Blurry

Вариант 1

 PUDDLE OF MUDD - Blurry
Album: Come Clean
Tabbed by: Gordon (boy_makes_music@hotmail.com)
Tuning: Standard (down a half step)
        (low to high: Eb, Ab, Db, Gb, Bb, eb)

*****************************************************

LEGEND:
* = harmonic
/ = slide up
 = slide down

*****************************************************

The second I heard the intro to this song I knew I had to learn it.  I
love harmonics more than anything else on guitar so this song was
generally easy for me to figure out.  The tuning in this song is
EXTREMELY important to get the correct notes on the harmonics.  Also,
the main riff that is featured in this song is really tricky to get
your head around and get the fingering right, I recommened barring your
ring finger over the 5th fret harmonic area and using your index to
move up the A string to get the right root notes.

This tab is very straight forward,  most of the song is tabbed here very
accurately but if you see any mistakes please e-mail me.  There are some
parts that are varied but are based around other riffs that I didn't tab
because they're quite easy to figure out with the help of the tab below.
Enjoy!

INTRO & VERSE:
*****************************************************

Guitar 1  - Acoustic - Main Riff:
eb|--------------------------------------------------
Bb|-----------------5*----------------5*-------------
Gb|--------5*----------5*----5*----------5*----5*----
Db|-----5*----5*----------------5*----------------5*-
Ab|--3-----------3--------3--------3--------3--------
Eb|--------------------------------------------------

eb|--------------------------------------------------
Bb|-----------------5*----------------5*-------------
Gb|--------5*----------5*----5*----------5*----5*----
Db|-----5*----5*----------------5*----------------5*-
Ab|--5-----------5--------5--------5--------5--------
Eb|--------------------------------------------------

eb|--------------------------------------------5*----
Bb|-----------------5*----------------5*----------5*-
Gb|--------5*----------5*----5*----------5*----------
Db|-----5*----5*----------------5*-------------------
Ab|--7*----------7*-------7*-------7*-------7*-------
Eb|--------------------------------------------------

eb|--------------------------------------------5*----
Bb|-----------------5*----------------5*----------5*-
Gb|--------5*----------5*----5*----------5*----------
Db|-----5*----5*----------------5*-------------------
Ab|--7*----------7*-------7*-------7*-------7*-------
Eb|--------------------------------------------------

Guitar 2 - Acoustic - Strum these chords:
eb|--------------------------------------------------
Bb|--------------------------------------------------
Gb|--5--7--9--9--------------------------------------
Db|--5--7--9--9--------------------------------------
Ab|--3--5--7--7--------------------------------------
Eb|--------------------------------------------------

Guitar 3 - Electric - Lead:
eb|--17--15----17--19----17--19----------------------
Bb|--------------------------------------------------
Gb|--------------------------------------------------
Db|--------------------------------------------------
Ab|--------------------------------------------------
Eb|--------------------------------------------------

Right before the chorus they're faintly playing a simple
octave riff but I can't hear it well enough to hear the notes.

CHORUS:
*****************************************************

2 Guitars - Electric/Distortion - Strum these chords:
eb|--------------------------------------------------
Bb|--------------------------------------------------
Gb|--------------------------------------------------
Db|--5--7--9--9--------------------------------------
Ab|--3--5--7--7--------------------------------------
Eb|--3--5--7--7--------------------------------------

BRIDGE:
*****************************************************

Guitar 1 - Electric/Distortion - Strum these chords:
eb|--------------------------------------------------
Bb|--------------------------------------------------
Gb|--5--7--9--9--------------------------------------
Db|--5--7--9--9--------------------------------------
Ab|--3--5--7--7--------------------------------------
Eb|--------------------------------------------------

Guitar 2 - Electric/Distortion:
eb|--------------------------------------------------
Bb|--------------------------------------------------
Gb|--10/12--12/--10/1211---12--12/------------------
Db|--------------------------------------------------
Ab|---8/10--10/---8/109----10--10/------------------
Eb|--------------------------------------------------

OUTRO:
*****************************************************

Guitar 1 - Electric/Distortion - Strum these chords:
eb|--------------------------------------------------
Bb|--------------------------------------------------
Gb|--5--7--9--9--------------------------------------
Db|--5--7--9--9--------------------------------------
Ab|--3--5--7--7--------------------------------------
Eb|--------------------------------------------------

Guitar 2 - Electric - Lead:
eb|---------------------------------------------------------------------------------------
Bb|------8--8------------------8--8------------------9--9---------------------------------
Gb|--7-9------9--9-7--9----7-9------9--9-7--9----7-9------9-9--7-9----9-7--9--7--9--7--7--
Db|---------------------------------------------------------------------------------------
Ab|---------------------------------------------------------------------------------------
Eb|---------------------------------------------------------------------------------------

*****************************************************
boy_makes_music@hotmail.com 
Аккорд A

Вариант 2

 Tune guitar a half-step down...
Tuning Low to High: (Eb, Ab, Db, Gb, Bb, Eb)

Explanation of Tab:

Natural Harmonic... 
Palm Mute.......... pm
Vibrato............ ~
Slide up........... /
Slide down......... 
ghost note......... ( ) slide to but don't pick the note shown in
                        parenthesis
                                                                           
Intro:  

   Rhy Fig 1
eb|-----------------------------------------------------|
Bb|-----------------------------------------------------|
Gb|--------------------------------------------|
Db|--------------------------------------------|
Ab|-3--3----------3--3--3--3---------3--3--3--3---------|
Eb|-----------------------------------------------------|
                        pm                 pm



eb|--------------------------------------------------------------|
Bb|--------------------------------------------------------|
Gb|-----------------------------------------------|
Db|-0--0-------0-----------------0----------------|
Ab|--------------------------------------------------------------|
Eb|--------------------------------------------------------------|
                  pm                      pm



eb|---------------------------------------------------------|
Bb|---------------------------------------------------|
Gb|------------------------------------------------|
Db|------------------------------------------------|
Ab|-7--7----------7----------------------7---------------------|
Eb|------------------------------------------------------------|
                  pm                     pm


                                                  End Rhy Fig 1
eb|---------------------------------------------------------|
Bb|---------------------------------------------------|
Gb|------------------------------------------------|
Db|------------------------------------------------|
Ab|-7--7----------7----------------------7---------------------|
Eb|------------------------------------------------------------|
                  pm                     pm



   Rhy Fig 2
eb|-----------------------------------|
Bb|-----------------------------------|
Gb|-----------------------------------|
Db|--------5--4-------4h5-4h5-4h5-----|
Ab|-2/(3)----------3------------------|
Eb|-----------------------------------|



eb|-----------------------------------|
Bb|-----------------------------------|
Gb|-----------------------------------|
Db|--------5--4-------4h5-4h5-4h5-----|
Ab|-3/(5)----------5------------------|
Eb|-----------------------------------|



eb|-----------------------------------|
Bb|-----------------------------------|
Gb|-----------------------------------|
Db|--------5--4-------4h5-4h5-4h5-----|
Ab|-5/(7)----------7------------------|
Eb|-----------------------------------|


                         End Rhy Fig 2
eb|-----------------------------------|
Bb|-----------------------------------|
Gb|---------------------------4~~-----|
Db|--------5--4-------4h5-4h5---------|
Ab|-5/(7)----------7------------------|
Eb|-----------------------------------|



Pre-Chorus:  Distortion

eb|-----------------------------------------------------
Bb|-----------------------------------------------------
Gb|-----------------------------------------------------
Db|-6-/(7)(6)-6-/-(9)--9--9--9-/(12)--12--12--12-/(14)-
Ab|-----------------------------------------------------
Eb|-----------------------------------------------------


----------------------------------------|
----------------------------------------|
----------------------------------------|
----------------------------------------|
-14--14--14--14--14-/(16)--16--16--17~~-|
----------------------------------------|


Chorus: (Can ya take me all the way hey...)

(strumming pattern not shown)
eb|----------|-------------|-------------|
Bb|----------|-------------|-------------|
Gb|-5--------|-5/7---------|-------------|
Db|-5--------|-5/7---------|-0h2---------|
Ab|-3--------|-3/5---------|-0h2---------|
Eb|-3--------|-3/5---------|-0-0---------|


Bridge: 

Riff A
eb|---------------------------------------|
Bb|---------------------------------------|
Gb|-11-/-(12)--12---12---12---11---11-----|
Db|-x----------x----x----x----x----x------|
Ab|-9--/-(10)--10---10---10---9----9h10p9-|
Eb|-0-------------------------0-----------|


eb|----------------------------------------|
Bb|----------------------------------------|
Gb|-11-/-(12)--12---12---12---11---11---11-|
Db|-x----------x----x----x----x----x----x--|
Ab|-9--/-(10)--10---10---10---9----9----9--|
Eb|-0-------------------------0------------|



Riff B                     {        (x2)
eb|------------------------|-----------------------------
Bb|------------------------|-----------------------------
Gb|------------------------|-----------------------------
Db|-9~~---------9--7~~----|---4--4h5--5--5--5--4--4h5p4-
Ab|------------------------|-----------------------------
Eb|------------------------|-----------------------------


                 } 
-----------------|
-----------------|
-----------------|
-4h5--5--5--5--4-|
-----------------|
-----------------|


*** Song Structure ***

Rhy Fig 1   x 4
Rhy Fig 2   x 1.5  (only play the first 2 bars the second time)
Pre-Chorus
Chorus      x 2

Rhy Fig 1   x 2
Rhy Fig 2   x 1.5
Pre-Chorus
Chorus      x 2

Bridge
Riff A      x 4
Riff B      x 2
Chorus      x 2

Rhy Fig 1   x 2 
Аккорд EbАккорд AАккорд B

Вариант 3

 tuning(c#,a,d,g)

intro/verse/bridge:
g ----------------------------------------------------------------
d ----------------------------------------------------------------
a -2-2-2-2-2-2-2-2-4-4-4-4-4-4-4-4--------------------------------
c#---------------------------------2-2-2-2-2-2-2-2-2-2-2-2-2-2-2-2

chorus:
g ----------------------------------------------------------------
d ----------------------------------------------------------------
a -2-2-2-2-2-2-2-2-4-4-4-4-4-4-4-4-6-6-6-6-6-6-6-6-6-6-6-6-6-6-6-6
c#----------------------------------------------------------------tuning(c#,a,d,g)

intro/verse/bridge:
g ----------------------------------------------------------------
d ----------------------------------------------------------------
a -2-2-2-2-2-2-2-2-4-4-4-4-4-4-4-4--------------------------------
c#---------------------------------2-2-2-2-2-2-2-2-2-2-2-2-2-2-2-2

chorus:
g ----------------------------------------------------------------
d ----------------------------------------------------------------
a -2-2-2-2-2-2-2-2-4-4-4-4-4-4-4-4-6-6-6-6-6-6-6-6-6-6-6-6-6-6-6-6
c#---------------------------------------------------------------- 

Вариант 4

 artist: puddle of mudd
song: blurry
tabbed by N.I.C.
i looked all over the net for a 4 string version but i couldnt find one so thanks to a little tuningh knowledge i tabbed it myself.
tuning: (g,d,a#,c#)

verse:
g ---------------------------------------------------------
d ---------------------------------------------------------
a#-3-3-3-3-3-3-3-3-5-5-5-5-5-5-5-5-------------------------
c#----------------------------------2-2-2-2-2-2-2-2-2-2-2-2

chorus:
g --------------------------------------------------------
d --------------------------------------------------------
a#-3-3-3-3-3-3-3-3-5-5-5-5-5-5-5-5-7-7-7-7-7-7-7-7-7-7-7-7
c#--------------------------------------------------------
i dont know how many times to play it but its not too hard 
Аккорд C

Вариант 5

 tabbed by Tim Hill
        skatin2005@yahoo.com

that is all that i have figured out so far....any questions or comments email me.....


----------------------|----------------------|
----------------------|----------------------|
---5---4---5---4---5--|---5---4---5---4---5--|
--4-5---4---5---4---5-|--4-5---4---5---4---5-|
-3---3---3---3---3----|-5---5---5---5---5----|
----------------------|----------------------|

-------------------5--|-------------------5--|
--------------------5-|--------------------5-|
---5---4---5---4------|---5---4---5---4------|
--4-5---4---5---4-----|--4-5---4---5---4-----|
-7---7---7---7---7----|-7---7---7---7---7----|
----------------------|----------------------|

-------------------17-|-15----------------17-|
----------------------|----------------------|
----------------------|----------------------|
----------------------|----------------------|
----------------------|----------------------|
----------------------|----------------------|

-0-0-0-0-0-0-0-0------|-2-2-2-2-2-2-2-2------|
-1-1-1-1-1-1-1-1------|-3-3-3-3-3-3-3-3------|
-0-0-0-0-0-0-0-0------|-2-2-2-2-2-2-2-2------|
-2-2-2-2-2-2-2-2------|-0-0-0-0-0-0-0-0------|
-3-3-3-3-3-3-3-3------|----------------------|
----------------------|----------------------|
     repeat once            repeat once 

Вариант 6

 Tuning: half step down Eb Ab C# F# Bb eb 
 
Intro: C D Em Em7 (x2)
 
Verse:
                 C                       D
Everything's so blurry and everyone's so fake 
                 Em                      Em7
and everybody's empty and everything is so messed up 
              C                             D
pre-occupied without you, I cannot live at all 
 Dsus2          Esus4                           E
My whole world surrounds you, I stumble then I crawl. 
                 C                        D
You could be my someone, you could be my scene 
 Dsus2             Em                        Em7
know that I'll protect you from all of the obscene 
                      C                       D
I wonder what you're doin, imagine where you are 
 Dsus2            Esus4                           E
there's oceans in between us, but that's not very far 
 
Chorus:
         C
Can you take it all away 
         D
can you take it all away 
          E
Well you shoved it in my face 
      E7
This pain you gave to me 
         C
Can you take it all away 
         D
Can you take it all away 
 E        
Well you shoved it in my face! 
 
Verse:
             C
Everyone is changing 
                            D
there's no one left that's real 
                     Em
to make up your own ending 
                      Em7
and let me know just how you feel 
                 C
cause I am lost without you 
                  D
I cannot live at all 
 Dsus2          Esus4
my whole world surrounds you 
                  E
I stumble then I crawl 
 
                 C                        D
You could be my someone, you could be my scene 
 Dsus2                Em                       Em7
You know that I will save you from all of the unclean 
                      C                        D
I wonder what you're doin, I wonder where you are 
 Dsus2            Esus4                           E
theres oceans in between us, but that's not very far 
 
Chorus:
         C
Can you take it all away 
         D
can you take it all away 
          E
Well you shoved it in my face 
      E7
This pain you gave to me 
         C
Can you take it all away 
         D
Can you take it all away 
 E        
Well you shoved it in my face! 
 
Bridge:
 C
Nobody told me what you thought 
 D
nobody told me what to say 
 Em
everyone showed you where to turn 
 Em7
told you when to run away 
 C
nobody told you where to hide 
 D
nobody told you what to say 
 Esus2
everyone showed you where to turn 
 E
showed you when to run away 
 
Chorus:
        C
Can you take it all away 
         D
can you take it all away 
          E
Well you shoved it in my face 
      E7
This pain you gave to me 
         C
Can you take it all away 
         D
Can you take it all away 
 E        
Well you shoved it in my face! 
 C                     D
This pain you gave to me 
 
Outro:
     E
You take it all 
     E7
You take it all away... 
      C
This pain you gave to me 
     D
You take it all away 
      E
This pain you gave to me 
      C
Take it all away 
      E
This pain you gave to me 
Аккорд EbАккорд AbАккорд C#Аккорд F#Аккорд BbАккорд CАккорд DАккорд EmАккорд Em7Аккорд Dsus2Аккорд Esus4Аккорд EАккорд E7Аккорд Esus2

Вариант 7

 Blurry-Puddle of mudd
Come Clean

Even though this band is connected to Fred Durst, and he can suck a knob, i really like 
this song.

riff a (acoustic) all notes other than anything on the a string are harmonics, notes in 
parentheses (.) play when riff a is recalled

e-----------------------------------------------------------------
b-----------------------------------------------------------------
g-----5-----4-----5-----4-----5-------5-----4-----5-----4-----5---
d---4---5-----4-----5-----4-----5---4---5-----4-----5-----4-----5-
a-3-------3-----3-----3-----3-----5-------5-----5-----5-----5-----
e-----------------------------------------------------------------

e-----------------------------5-------------------------------5---
b-------------------------------5-------------------------------5-
g-----5-----4-----5-----4-------------5-----4-----5-----4----(5)--
d---4---5-----5-----4-----5---------4---4-----5-----4-----5----(0)
a-7-------7-----7-----7-----7-----7-------7-----7-----7-----7-----
e-----------------------------------------------------------------

gtr 1 play riff a

gtr 3 (acoustic)

e-3-3-3-3-3-3-3-3-3-3--3-3-3-3-3-0-0-0-0-0-0-0-0-0-0--0-0-0-0-0---
b-3-3-3-3-3-3-3-3-3-3--3-3-3-3-3-3-3-3-3-3-3-3-3-3-3--3-3-3-3-3---
g-0-0-0-0-0-0-0-0-0-0--0-0-0-0-0-2-2-2-2-2-2-2-2-2-2--2-2-2-2-2---
d-2-2-2-2-2-2-2-2-2-2--2-2-2-2-2-0-0-0-0-0-0-0-0-0-0--0-0-0-0-0---
a-3-3-3-3-3-3-3-3-3-3--3-3-3-3-3-0-0-0-0-0-0-0-0-0-0--0-0-0-0-0---
e-----------------------------------------------------------------

gtr 2. w/ delay , phaser and chorus

e-----------------------------17-15-------------------------17----
b-----------------------------------------------------------------
g-----------------------------------------------------------------
d-----------------------------------------------------------------
a-----------------------------------------------------------------
e-----------------------------------------------------------------

gtr 3

e-3--3-3--3-3-3-3--3-3-3-3-3--3--3-3--3-3-3-3--3-3-3-3-3----------
b-3--3-3--3-3-3-3--3-3-3-3-3--3--3-3--3-3-3-3--3-3-3-3-3----------
g-0--0-0--0-0-0-0--0-0-0-0-0--0--0-0--0-0-0-0--0-0-0-0-0----------
d-2--2-2--2-2-2-2--2-2-2-2-2--2--2-2--2-2-2-2--2-2-2-2-2----------
a-2--2-2--2-2-2-2--2-2-2-2-2--2--2-2--2-2-2-2--2-2-2-2-2----------
e-0--0-0--0-0-0-0--0-0-0-0-0--0--0-0--0-0-0-0--0-0-0-0-0----------

gtr 2

e-19-----------------------17-17---------------17-----------------
b-----------------------------------------------------------------
g-----------------------------------------------------------------
d-----------------------------------------------------------------
a-----------------------------------------------------------------
e-----------------------------------------------------------------

Verses: Riff A x4 ev?ry thing?s so blurry.......

e-3-3--3-3--3-3-3-3--3-3--3-3-5-5-5-5-5-5-5-5-5---5-5-5-5-5-5-----
b-3-3--3-3--3-3-3-3--3-3--3-3-5-5-5-5-5-5-5-5-5---5-5-5-5-5-5-----
g-5-5--5-5--5-5-5-5--5-5--5-5-7-7-7-7-7-7-7-7-7---7-7-7-7-7-7-----
d-5-5--5-5--5-5-5-5--5-5--5-5-7-7-7-7-7-7-7-7-7---7-7-7-7-7-7-----
a-3-3--3-3--3-3-3-3--3-3--3-3-5-5-5-5-5-5-5-5-5---5-5-5-5-5-5-----
e-----------------------------------------------------------------

e-7--0-0-0-0-0--0-0---0-0-0-0-0-0-0-0-0-0-0-0-0-0-0-0----0-0------
b-7--0-3-3-3-3--3-3---3-3-3-3-3-3-3-3-3-3-3-3-3-3-3-3----3-3------
g-9----0-0-0-0--0-0---0-0-0-0-0-0-0-0-0-0-0-0-0-0-0-0----0-0------
d-9----2-2-2-2--2-2---2-2-2-2-2-2-2-2-2-2-2-2-2-2-2-2----2-2------
a-7----2-2-2-2--2-2---2-2-2-2-2-2-2-2-2-2-2-2-2-2-2-2----2-2------
e------0-0-0-0--0-0---0-0-0-0-0-0-0-0-0-0-0-0-0-0-0-0----0-0------

e-3--3-3--3-3-3-3--3-3-3-3-3-3-5--5--5-5-5--5-5-5-5-5-5--5-5------
b-3--3-3--3-3-3-3--3-3-3-3-3-3-5--5--5-5-5--5-5-5-5-5-5--5-5------
g-5--5-5--5-5-5-5--5-5-5-5-5-5-7--7--7-7-7--7-7-7-7-7-7--7-7------
d-5--5-5--5-5-5-5--5-5-5-5-5-5-7--7--7-7-7--7-7-7-7-7-7--7-7------
a-3--3-3--3-3-3-3--3-3-3-3-3-3-5--5--5-5-5--5-5-5-5-5-5--5-5------
e-----------------------------------------------------------------

e-0-0-0-0-0-0-0-0-0-0-0-0-0-0-0-0-0-0-0-0-0-0-0-0-0-0-0-0-0-0-----
b-0-0-0-0-0-0-0-0-0-0-0-0-0-0-0-0-0-0-0-0-0-0-0-0-0-0-0-0-0-0-----
g-9-9-9-9-9-9-9-9-9-9-9-9-9-9-9-9-9-9-9-9-9-9-9-9-9-9-9-9-9-9-----
d-9-9-9-9-9-9-9-9-9-9-9-9-9-9-9-9-9-9-9-9-9-9-9-9-9-9-9-9-9-9-----
a-7-7-7-7-7-7-7-7-7-7-7-7-7-7-7-7-7-7-7-7-7-7-7-7-7-7-7-7-7-7-----
e-----------------------------------------------------------------

gtr 4 (clean)

e-----------------------------------------------------------------
b-----------------------------------------------------------------
g-----------------------------------------------------------------
d----5--4----4-4---4---4h5-5-0----5--4----4-4---4-4h5-5-0---------
a-3--------3-3-3-3---3---------5--5--5--5-5-5-5-5-----------------
e-----------------------------------------------------------------

e-----------------------------------------------------------------
b-----------------------------------------------------------------
g-----------------------------------------------4-----------------
d----5--4----4-4---4h5-4--------5-4----4-4--4h5------0------------
a-7--------7-----7----------7-7------7----------------------------
e-----------------------------------------------------------------

e-----------------------------------------------------------------
b-----------------------------------------------------------------
g-----------------------------------------------------------------
d----5--4----4-4---4---4h5-5-0-----5--4----4-4---4---4h5-5-0------
a-3--------3-----3---3----------5--------5-----5---5--------------
e-----------------------------------------------------------------

e-----------------------------------------------------------------
b-----------------------------------------------------------------
g-14--13--13-14--13-16--16-19--19-19-19-19-21-21-21-21-23-23-24---
d--x---x---x--x---x--x---x--x---x--x--x--x--x--x--x--x--x--x--x---
a-12--11--11-12--11-14--14-17--17-17-17-17-19-19-19-19-21-21-22---
e-----------------------------------------------------------------

Chorus:

e--------3--3-3-3-3-3-3-3-3-3-3---------5--5-5-5-5-5-5-5-5-5-5----
b--------3--3-3-3-3-3-3-3-3-3-3---------5--5-5-5-5-5-5-5-5-5-5----
g-5--5-5-5--5-5-5-5-5-5-5-5-5-5-5/7-7-7-7--7-7-7-7-7-7-7-7-7-7----
d-5--5-5-5--5-5-5-5-5-5-5-5-5-5-5/7-7-7-7--7-7-7-7-7-7-7-7-7-7----
a-3--3-3-3--3-3-3-3-3-3-3-3-3-3-3/5-5-5-5--5-5-5-5-5-5-5-5-5-5----
e-3--3-3-3--3-3-3-3-3-3-3-3-3-3-3/5-5-5-5--5-5-5-5-5-5-5-5-5-5----

e---------0--0-0-0-0--0-0-0-0-0-0--0-0-0-0-0-0-0-0-0-0-0-0-0-0----
b---------0--0-0-0-0--0-0-0-0-0-0--0-0-0-0-0-0-0-0-0-0-0-0-0-0----
g-7-9-9-9-9--9-9-9-9--9-9-9-9-9-9--9-9-9-9-9-9-9-9-9-9-9-9-9-9----
d-7-9-9-9-9--9-9-9-9--9-9-9-9-9-9--9-9-9-9-9-9-9-9-9-9-9-9-9-9----
a-5-7-7-7-7--7-7-7-7--7-7-7-7-7-7--7-7-7-7-7-7-7-7-7-7-7-7-7-7----
e-0---0-0-0--0-0-0-0--0-0-0-0-0-0--0-0-0-0-0-0-0-0-0-0-0-0-0-0----

interlude:

gtr 1.

e-----------------------------------------------------------------
b-----------------------------------------------------------------
g11-12-12---11-121111-12--12-1211---------------------------------
d-x--x--x----x--x-x-x--x---x--x-x---------------------------------
a-9-10-10----9-10-9-9-10--10-10-9---------------------------------
e---------0-----------------------0-0-----------------------------

gtr 2.

e-----------------------------------------------------------------
b-7-8--8-8-x-x-7--7-8--8-8-7-x-x-x-x-x----------------------------
g-7-7--7-7-x-x-7--7-7--7-7-7-x-x-x-x-x----------------------------
d-7-9--9-9-x-x-7--7-9--9-9-7-x-x-x-x-x----------------------------
a-7-7--7-7-x-x-7--7-7--7-7-7-x-x-x-x-x----------------------------
e-----------------------------------------------------------------

outro solo: w/ phaser chorus and delay

e-----------------------------------------------------------------
b-----------------------------------------------------------------
g-------12------------------------------------12------------------
d-12h14-----14-14-14-12-12-14-14-14-14--12-14-----14-12-14-12--14-
a-----------------------------------------------------------------
e-----------------------------------------------------------------

e-----------------------------------------------------------------
b-----------------------------------------------------------------
g--------------------------------------------12-12-12-------------
d-12-12-12-14-14-14-12--12-14-14-12-12-12-14----------14--12-14---
a-----------------------------------------------------------------
e-----------------------------------------------------------------

e-----------------------------------------------------------------
b-----------------------------------------------------------------
g-12--------------------------------------------------------------
d-----14-14-14-12-12-14-14-14-12--14-14-14-12---------------------
a-----------------------------------------------------------------
e-----------------------------------------------------------------

that?s almost all of it, i?m just lazy
trevor jones
timmy91199@yahoo.ca 
Аккорд A

Вариант 8

 Title - Blurry
Artist - Puddle of Mudd
Tabber - Roo6339
E-Mail - Roo_6339@hotmail.com

Intro/Verse:

keep repeating until chorus

e|-----------------------------------------------|
B|-----------------------------------------------|
G|-----------------------------------------------|
D|------------------------1-1-1-1----1-1-1-1-1---| 
A|--2-2-2-2-22-4-4-4-4-44---------44----------4--|
E|-----------------------------------------------|

Chorus:

e|-----------------------------------------------|
B|-----------------------------------------------|
G|-4-4-4-4-44-/6-6-6-6-66-/8-8-8-8-86-8-8-8-8-86-|
D|-4-4-4-4-44-/6-6-6-6-66-/8-8-8-8-86-8-8-8-8-86-| x2
A|-2-2-2-2-22-/4-4-4-4-44-/6-6-6-6-64-6-6-6-6-64-|
E|-----------------------------------------------|

Bridge:

e|---------------------------------------------------------|
B|---------------------------------------------------------|
G|---------------------------------------------------------|
D|-3h4p4-3h4p4-4-3-3h4p4-3h4p4-4-3-3h4p4-3h4p4-4-3-3h4p4-4-|
A|---------------------------------------------------------|
E|---------------------------------------------------------|

e|-----------------------------------------------|
B|-----------------------------------------------|
G|-4-4-4-4-44-/6-6-6-6-66-/8-8-8-8-86-8-8-8-8-86-|
D|-4-4-4-4-44-/6-6-6-6-66-/8-8-8-8-86-8-8-8-8-86-| x2
A|-2-2-2-2-22-/4-4-4-4-44-/6-6-6-6-64-6-6-6-6-64-|
E|-----------------------------------------------|

Then go back to the chorus

Outro:

Play this once:

e|-----------------------------------------------|
B|--7------------7------------7------------------|
G|----8-6-8--6-8---8-6-8--6-8---8-6-8--6-8-6-8---|
D|-----------------------------------------------|
A|-----------------------------------------------|
E|-----------------------------------------------|

Then:

e|-------------------------------------------------|
B|------7------------9------------8----------------|
G|--6-8---8-6-8--6-8---8-6-8--6-8---8-6-8--6-8-6-8-|
D|-------------------------------------------------|
A|-------------------------------------------------|
E|-------------------------------------------------|

e|------------------------------------------------|
B|------------------------------------------------|
G|------------------------------------------------|
D|------------------------1-1-1-1----1*-1-1-1-1---| x2 *the second time only 
A|--2-2-2-2-22-4-4-4-4-44---------44----------4---|     play up to here
E|------------------------------------------------|

END

That's it, any comments, criticism, thanks, corrections, death threats,
whatever you want, email me. my address is up there. 

Вариант 9

 Blurry
Puddle of Mudd

Author: VJ Mercader

Chords:
 
         E A D G B e
C    - [ 0 3 2 0 1 0 ]
D    - [ 0 0 0 2 3 2 ]
Dsus - [ 0 0 0 2 3 3 ]
Em   - [ 0 2 2 0 0 0 ]
E7   - [ 0 2 0 1 0 0 ]

           E A D G B e
E7sus  - [ 0 2 0 2 0 0 ]
Esus   - [ 0 2 2 2 0 0 ]
E      - [ 0 2 2 1 0 0 ]
C#add9 - [ 3 3 5 5 3 3 ]
D#add9 - [ 5 5 7 7 5 5 ]
 

Intro:
C#add9  D#add9
C#add9  D#add9
Esus    E

			C
Everything's so blurry 
			Dsus--D
and everyone's so fake
		Em 
everybody's empty 
			E7-E7sus-E7
and everything is so messed up 
			C
pre-occupied without you 
			Dsus--D
I cannot live at all
			Esus
my whole world surrounds you 
                  E
I stumble and I crawl
                  C#add9
& you could be my someone
              D#add9
you can be my scene
                  C#add9 
you know that I'll protect you 
                D#add9
from all of the obscene 
                  C#add9
I wonder what your doing 
                D#add9
imagine where you are
                  Esus 
there's oceans in between us 
                       E 
but that's not very far

         C#add9                     D#add9
can you take it all away | can you take it all away 
          Esus            E            Esus           E
well you shoved it in my face | this pain you gave to me 

everyone is changing 
there's no one left that's real 
make up your own ending 
and let me know just how you feel 
cause I am lost without you 
I cannot live at all 
my whole world surrounds you 
I stumble then I crawl
you could be my someone 
you can be my scene 
you know that I will save you 
from all of the unclean 
I wonder what your doing 
I wonder where you are 
there's oceans in between us 
but that's not very far

     C                             D
Nobody told me what you thought | nobody told me what to say 
     Esus                            E
everyone showed you where to turn | showed you when to run away
     C                               D
nobody showed you where to hide | nobody told you what to say 
     Esus                            E
everyone showed you where to turn | showed you when to run away

Can you take it all away, can you take it all away
can you take away the pain, the pain you gave to me
this pain you gave to me 
Аккорд EАккорд AАккорд DАккорд GАккорд BАккорд CАккорд DsusАккорд EmАккорд E7Аккорд E7susАккорд EsusАккорд C#add9Аккорд D#add9Аккорд Dsus--DАккорд E7sus-E7