Портал для гитаристов
gtars.ru

Puddle Of Mudd — Control

 ontrol-Puddle Of Mudd
Come Clean

C# (down a minor 3rd)
C# F# B E G# C#

Fig 1. 

e------------------------------------------------------------
b------------------------------------------------------------
g------------------------------7--7-7------------------------
d-2--2-2-2--2-5--5-5-5-5-4-----7--7-7----7--7-7-7-7-5---5----
a-2--2-2-2--2-5--5-5-5-5-4-----5--5-5----7--7-7-7-7-5---5----
e-0--0-0-0--0-3--3-3-3-3-2-0-0---------0-5--5-5-5-5-3---3----

e------------------------------------------------------------
b------------------------------------------------------------
g----------------------------7--7-7--------------------------
d-2--2-2--2-5--5-5-5-5-4-----7--7-7----7--7-7-7-7-5----5-----
a-2--2-2--2-5--5-5-5-5-4-----5--5-5----7--7-7-7-7-5----5-----
e-0--0-0--0-3--3-3-3-3-2---0---------0-5--5-5-5-5-3----3-----

Riff A

e------------------------------------------------------------
b------------------------------------------------------------
g-7/9-9-9-97-711--12-12-12-12-12-14-149-9111111119-7--7---
d-x-x-x-x-x-x-x-x---x--x--x--x--x--x--x-x-x-x-x-x-x-x-x--x---
a-5/7-7-7-75-5-9--10-10-10-10-10-12-127-7/9-9-9-97-5--5---
e------------------------------------------------------------

e------------------------------------------------------------
b------------------------------------------------------------
g-7/9-9-9-97-711--12-12-14-14-121111-14--14-14-14-14-12-12--
d-x-x-x-x-x-x-x-x---x--x--x--x--x-x-x--x---x--x--x--x--x--x--
a-5/7-7-7-75-5-9--10-10-12-12-10-9-9-12--12-12-12-12-10-10--
e------------------------------------------------------------

Verses:

e------------------------------------------------------------
b------------------------------------------------------------
g-9-------------------------9--9--9-9---9-911----------------
d-x-------------------------x--x--x-x---x-x-x----------------
a-7-------------------------7--7--7-7---7-7/9----------------
e------------------------------------------------------------

e------------------------------------------------------------
b------------------------------------------------------------
g-9----------------------11----------12----------------------
d-x----------------------12----------11----------------------
a-7-----------------------x-----------x----------------------
e------------------------10-----------9----------------------

e------------------------------------------------------------
b------------------------------------------------------------
g-----11-----------------12---------9-------11---------------
d-9------------------9---------------------------------------
a-x----------------------------------------------------------
e-7----------------------------------------------------------

e------------------------------------------------------------
b------------------------------------------------------------
g-------11--------11------12-12-12-12-12-12/14-14-14-14-14---
d-9-----------9------------x--x--x--x--x--x--x--x--x--x--x---
a-------------------------10-10-10-10-10-10/12-12-12-12-12---
e------------------------------------------------------------

Chorus: Fig 1.

after 2nd chorus

e------------------------------------------------------------
b-----------------------5--------5-------5----------5--------
g-------4----------4-------4----------------4-------4--------
d-2--------2---2---2--2----2---2------------2-------2--------
a-2--------------2-2-------2-------2-----------2--2----2-----
e-0----------------0-------0-------0---0-------0--0----0-----

Breakdown:

pm
e------------------------------------------------------------
b------------------------------------------------------------
g------------------------------------------------------------
d-7-9-9-9-9-9-7-9-9-9-9-9-12-12-12-9-------------------------
a-5-7-7-7-7-7-5-7-7-7-7-7-10-10-10-7-------------------------
e------------------------------------------------------------

Bridge:

e------------------------------------------------------------
b------------------------------------------------------------
g-7-9---9----7-9--9----12--12--7-9---9----7-9---9----12--12--
d-7-9---9----7-9--9----12--12--7-9---9----7-9---9----12--12--
a-5-7---7----5-7--7----10--10--5-7-7-7----5-7---7----10--10--
e----------0---------0-------------7----0-----0----0---------

Outro Solo: w/ wah and echo

e------19----19h22-19---------19h22-22--22-22--22brbrbrbrbr--
b-22------22----------22brbr---------------------------------
g------------------------------------------------------------
d------------------------------------------------------------
a------------------------------------------------------------
e------------------------------------------------------------

e-22rb-22rb---------19----------22---------------------------
b-----------22--22b----22b-22br----22b--22brbr---22b---------
g------------------------------------------------------------
d------------------------------------------------------------
a------------------------------------------------------------
e------------------------------------------------------------

e-22---22-22-22-----22-22-21--22p21p19-21--21--22p21---------
b---------------22b------------------------------------------
g------------------------------------------------------------
d------------------------------------------------------------
a------------------------------------------------------------
e------------------------------------------------------------

e-----20h21-19h22--------------------------------------------
b-22--------------22-22-22b--22--22-22-22--------------------
g-----------------------------------------21-19-21-19--19----
d------------------------------------------------------------
a------------------------------------------------------------
e------------------------------------------------------------

e------------------------------------------------------------
b--------------------------------------------22-------22-----
g-19------------------------------19/21-19h21---19h21--------
d----2119-19-19-1716/17-17-19-21---------------------------
a------------------------------------------------------------
e------------------------------------------------------------

e----------------------------19-19----19-------19-22-19------
b-------22-------22-------22-------22----22-22-----------22--
g-19h21----19h21----19h21------------------------------------
d------------------------------------------------------------
a------------------------------------------------------------
e------------------------------------------------------------

e----19-22---22---22-22--------22---22-----22---------22-----
b-22---------------------------------------------------------
g------------------------------------------------------------
d------------------------------------------------------------
a------------------------------------------------------------
e------------------------------------------------------------

that’s all
this is far from the most complete, but no one 
else has this solo, so ya know....

trevor jones
timmy91199@yahoo.ca
 
Аккорд C#Аккорд F#Аккорд BАккорд EАккорд G#Аккорд A

Puddle Of Mudd — Control

 Puddle of Mudd, Control.
 Tabbed by Rick Lugo, Rickltwenty2@aol.com.
  
Name: Rick Lugo

Song: Control
Written by: Puddle of Mudd
Tabbed by: RIck Lugo

This is my first tab but it sounds pretty good, so check it out and let me 
know what you think, especially if you think it sucks

Intro:
e-----------------------------------------------
b-----------------------------------------------
g--6-6-6/9--9-9-9/8-----------------------------
d--6-6-6/9--9-9-9/8--9-9-9---4-4-4---2---------- x2
a--4-4-4/7--7-7-7/6--9-9-9---4-4-4---2----------
e--------------------7-7-7---2-2-2---0----------

then

e------------------------------------
b------------------------------------
g--4/666/999/88/11-11-11/999/8-------
d------------------------------------ x2
a--2/444/777/66/9--9---9/777/6-------
e------------------------------------

Chorus:
e-----------------------------------------------
b-----------------------------------------------
g--6-6-6/9--9-9-9/8-----------------------------
d--6-6-6/9--9-9-9/8--9-9-9---4-4-4---2---------- x4
a--4-4-4/7--7-7-7/6--9-9-9---4-4-4---2----------
e--------------------7-7-7---2-2-2---0---------- 
:: Ultimate Guitar Archive :: 
http://www.ultimate-guitar.com 



 

Puddle Of Mudd — Control

 Artist: Puddle of mudd
Song: Control
Album: Coming Clean
By Billy Willabong12uk@yahoo.co.uk     
Hi, this is my first tab but I think that everything is right, 
I couldn’t be bothered to put the last bit down because it Its 
so easy this is a great song by a great band so enjoy! 
This tab has not been on any other sites that I have seen 
so this is the first site to have it!


Intro/chorus

G----------------------------------------------------------------
D------------------------------------------------------------------------------
A----------------------------- /1st time-3 times / 4th time -once -------
E-9-9-99-12-12-12-11---- / 7-7-77-222-0    / 14-12-11-12------------

Verse

G-------------------------------------------------------------------
D-------------------------------------------------------------------
A----------------------14-14-14-14-99--------------------------
E-9-9-99-12-12-12----------------------------------------------

                                     
The end bits using similar notes so it won’t be hard to work out!                                                                           

===========
Artist: Puddle of Mudd
album: Come Clean
song: Control
tabbed by: Trey(SOADsuga99@aol.com)
comments: Puddle of Mudd's guitars are tuned one and a 
half steps down(C#,F#,B,E) but I decided to tab it out 
in drop D-flat(Db,Ab,Db,Gb)cuz I didnt feel like tuning 
all the way down. play with a pick


Intro:4x's
Gb -----------------------------|--------------------------
Db *----------------------------|------------------------*-
Ab *----------------------------|-3--3-3-----------------*-
Db --0--0-0-0--0-3-3-3-3-3-2-0-0|--------0--5-5-5-5-5-3-3--


verse:3x's
Gb ------------------------------------------------------------------
Db *----------------------------------------------------------------*
Ab *---------------------------------3-3-3-3--3-3-3-----------------*
Db -0--0-0-0--0-3-(3)3-3-3--3-2-2-3----------------5(5)-5-5-5-5-3--3-   

chorus: same as intro

breakdown:(2:09) 3x's
Gb -------------
Db -------------
Ab --3-5-----3-5
Db -------------

then play this once:    
Gb ---------------------------------
Db ---------------------------------
Ab --3-5--5-5-5---3-5--5-5-58-8-8-8
Db ---------------------------------

bridge:(2:33)3x's
Gb -------------------------
Db -------------------------
Ab --3-5--5----3-5----8-8---
Db -----------0------0------

then play:5x's and on the 5th time ride the Ab-8
Gb ----------------------------------
Db ----------------------------------
Ab -3-5-5-5--5--5-3-5-5-5--5--5--8-8-
Db ----------------------------------

that's the song just that one riff modifided a little bit.
if you have any questions, drop me a line.
==== 
Аккорд EАккорд GbАккорд DbАккорд AbАккорд Ab-8

Puddle Of Mudd — Control

 Every tab I have seen of this song is so damn wrong. Here is the right way to play it.

Guitar 1:

E---------------------------------------------------
B---------------------------------------------------
G----------------------------7-7-7-7----------------
D-2-2-2-2---5-5-5-5-5--4-----7-7-7-7---7-7-7-7-7--5-
A-2-2-2-2---5-5-5-5-5--4-----5-5-5-5---7-7-7-7-7--5-
E-0-0-0-0---3-3-3-3-3--2---------------5-5-5-5-5--3-

Guitar 2:

E--------------------------------------------------------
B--------------------------------------------------------
G-9-9-9-9---12-12-12-12-12--11----7-7-7-7----------------
D-9-9-9-9---12-12-12-12-12--11----7-7-7-7---7-7-7-7-7--5-
A-7-7-7-7---10-10-10-10-10--9-----5-5-5-5---7-7-7-7-7--5-
E-------------------------------------------5-5-5-5-5--3-