Портал для гитаристов
gtars.ru

Puddle Of Mudd — Drift And Die

 This is how my friend taught me, he did it on acoustic and in dropped d, turned 
a half step down. He just showed me the verse and chorus, but if anybody has tabbed 
the solo please post it cause this song is awesome

         VERSE

Eb|---3-3-3--2-2-2-2-2-2-|
Bb|---3-3-3--3-3-3-3-3-3-|
Gb|---2-2-2--2-2-2-2-2-2-|  Play twice
Db|---0-0-0--0-0-0-0-0-0-|
Ab|----------------------|
Db|----------------------|
        
        Then 

Eb|----------------------|
Bb|---3-3-3--3-3-3-3-3-3-|
Gb|---0-0-0--0-2-2-2-2-2-|  Play Twice
Db|---2-2-2--0-0-0-0-0-0-|
Ab|---3-3-3--2-2-2-2-2-2-|
Db|----------3-3-3-3-3-3-|


        Chorus

Eb|--------------------------|
Bb|---3-3-3--3-3----------3-3|
Gb|---2-2-2--0-2----------0-0|  Play Twice
Db|---0-0-0--2-0----------2-2|
Ab|----------3-1--1-1-1-1-3-3|
Db|---------------1-1-1-1----| 

Puddle Of Mudd — Drift And Die

 These are the chords used in the verse and intro to Drift & Die by Puddle of Mudd. 
They are played on an acoustic. Just listen to the song to get the rythm.

 Dm  D?  C  B/C
---1--0--0--0--
---3--3--1--1--
---2--2--0--0--
---------2--x--
---------3--2--
---------------

Chorus Chords

D C F G

Lyrics

Forgotten thoughts of yesterdays
through my eyes I see the past
(Chorus)
Well I don't know
I don't know
I don't know why
I believe I believe
I believe in the truth
from inside
go away, go away
go away from me
leave me alone
ignorance spreads lies
how much will money buy
well I'll take my time
as I drift and die

unwanted live my life a shame
whos to blame for my mistakes

Chorus

as I drift and die(2x's)

Ignorance spreads lies
how much will muney buy
well I'll take my time
as I drift and die (5x's)

that's just the basics. there is a little lead which I play in D minor petnatonic.  
Аккорд DmАккорд CАккорд B/CАккорд DАккорд FАккорд G

Puddle Of Mudd — Drift And Die

 Puddle of mud 
Drift and Die

E---1-------0-------1-------0-------0-------0-------0------>
B---3-------3-------3-------3-------1-------0-------1------>
G---2-------2-------2-------2-------2-------2-------2------>
D---0-------0-------0-------0-------2-------2-------2------>
A-----------------------------------0-------0-------0------>
E---------------------------------------------------------->

           
E---0-------
B---0-------
G---2-------        (REAPEAT SEVERAL TIMES) 
D---2-------      
A---0-------        KEEP PLAYING AND FIGURE OUT BEAT
E----------- 

Puddle Of Mudd — Drift And Die

 another intro 😛

i saw one and tried to play it and didnt sound right

   
e|-0-0-0-0-0-0-0-0-0-0-0-0-0-0-0-0-0-0-
B|-1-1-1-0-0-0-0-0-0-1-1-1-0-0-0-0-0-0-
G|-2-2-2-2-2-2-2-2-2-2-2-2-2-2-2-2-2-2-
D|-2-2-2-2-2-2-2-2-2-2-2-2-2-2-2-2-2-2-
A|-0-0-0-0-0-0-0-0-0-0-0-0-0-0-0-0-0-0-
E|-x-x-x-x-x-x-x-x-x-x-x-x-x-x-x-x-x-x-

e|-3-3-3-3-3-3-3-3-3-3----------------
B|-2-2-2-0-0-0-0-0-0-0----------------
G|-0-0-0-0-0-0-0-0-0-0----------------
D|-0-0-0-0-0-0-0-0-0-0-3-3-3-3-3-3-3-3
A|-2-2-2-2-2-2-2-2-2-2-3-3-3-3-3-3-3-3
E|-3-3-3-3-3-3-3-3-3-3-1-1-1-1-1-1-1-1 

Puddle Of Mudd — Drift And Die

 Drift and Die 
Puddle of Mudd
Come Clean

Down Ѕ step  
        
Verse                *       *  *
Eb--1--0--1--0----0--1-------0--1---------------------------
Bb--3--3--3--3----3--3-------3--3---------------------------
Gb--2--2--2--2----0--0-------0--0---------------------------
Db----------------2--2-------0--0---------------------------
Ab----------------3--3-------2--2---------------------------
Eb---------------------------3--3---------------------------
*= Ad lib chord (not necassary to play)
Strum each Chord a few times


Pre-Chorus and Chorus
Eb------------------------------------------------
Bb------------------------------------------------
Gb---7--5-(5)-------------------------------------
Db---7--5-(5)--3-3--3/5-5-------------------------
Ab---5--3--2---3-3--3/5-5-------------------------
Eb-------------1-1--1/3-3-------------------------

Strum each chord X amount of times.  Listen to get the pattern


Solo Thing at the end  (distorted and with wah)

Eb-----------------------------------------------
Bb-----------------------------------------------
Gb---7--5--7-------------------------------------
Db---7--5--7-------------------------------------
Ab---5--3--5-------3-----3---5-5-5---------------
Eb-------------1-3-----3---3---------------------

Play this 4 times   on the last time bend Ab on the 5th a half step 
Аккорд Ab

Puddle Of Mudd — Drift And Die

            Puddle Of Mudd
           Drift And Die
         Tuning = Eb Ab Db Gb Bb Eb

          /=Slide Easy Enough?

     ---1-0-0--
     ---3-3-3--
     ---2-2---- Intro/Verse Listen to the damn 
     -------2-- song and figure out the rythm.
     -------3-- Put it this way, im too lazy to 
     ---------- figure it out for you.

     ---------------
     ---------------
     ---7-5-4-3/5--- Chorus Same thing find out your
     ---7-3-2-3/3--- own rythm for this. I happen to 
     ---5-3-2-1/3--- suffer from l.s Lazy Syndrome.
     ---------------

     -----------------------------
     -----------------------------
     ---7/5/7--------------------- Solo part
     ---5/3/5---------------------
     ---5/3/5-----3---3-5-5-5-5---
     ---------1-3---3-------------

     
     --------------------------
     ---7-5-4-3/5----------7---
     ---7-3-2-3/3---End-on-5---
     ---5-3-2-1/3----------5---
     -------------------------- 
Аккорд EbАккорд AbАккорд DbАккорд GbАккорд Bb