Портал для гитаристов
gtars.ru

Puddle Of Mudd — Heel Over Head

Вариант 1

 This is my first tab. Hope u like it.
NOTE: All Chords are Bar Chords 

Puddle Of Mudd
Heel Over Head

Intro: B, A, F

B                            F
Don't you walk out that door,Don't even pet the dog on the floor
B                                 F
Just take your things in the yard,And throw your keys anywhere

B                                        A                    F
After all the things I've done for you, Year after year after burnin' year
B                                   B
I'm sorry for wastin all your time, And I'm sorry for loosin' all my life

B                                          F
And I think that I'm lost and hard to find,But I fell like im livin' a darkness lie
B               F       B                          B
Heel over head Jet lag sky is painted white again, I'm heel over head
B                    F            B
Leave my eyes in the clouds again, You don't save me at all (x4)
B                           F                        B
Don't you walk away from me,I'm givin' up everything,But i think that I'm 
                            B                B    F  B     F  B     F
rippin' a part at the seams,You don't see me,Hear me,Touch me,Bring me
B                             
Think that I'm rippin' a part at the seams,You don't see me at all,

You don't see me at all, ALL


And there you have it! If you see POM in concert and get up close Wes doesn't
move around that much so you can really see what chords he's making. 
Аккорд FАккорд BАккорд A

Вариант 2

 This is my first tab, and I am Tabbing a Puddle of Mudd song so here goes.
              Heel over Head -Puddle of Mudd, album, Life on Display

Standard tuning 
Tabbed by cheyenne
email me at: nomnom_@hotmail.com

e/---------------------------------------------------/
b/-444444444444--------------------------------------/
g/-444444444444-6-77-6-4444444444444444--------------/
d/-222222222222-6-77-6-4444444444444444--------------/
e/--------------4-55-4-2222222222222222--------------/

This is what it does for most of the song, except for the pre chorus, which goes:
e/---------------------------------------------------/
b/---------------------------------------------------/
g/---4-----------------------------------------------/
d/-6-4-----------------------------------------------/
a/-6-2-----------------------------------------------/
e/-4-------------------------------------------------/
 for the pre chorus, it just alternates these chords strumming them,
then just before the chorus, it strums the full b chord which is:

e/---------------------------------------------------/
b/-4-------------------------------------------------/
g/-4-------------------------------------------------/
d/-4-------------------------------------------------/
a/-2-------------------------------------------------/
e/---------------------------------------------------/
and thats just about it, except for the bridge which is just the starting,
just muted, and ya, i hope you have fun with this song 

Вариант 3

 		     HEEL OVER HEAD - Puddle of Mudd

Tabbed by: D. Guy
Email: maverickreno@aol.com

Standard Tuning, Power Chords used:

     B5     A5    E5    F#5    C5
e|-----------------------------------
B|-----------------------------------
G|----4------2------------------5----
D|----4------2-----2-----4------5----
A|----2------0-----2-----4------3----
E|-----------------0-----2-----------

It starts out by strumming B5 about 17x's, then A5 once, quickly to E5 once, then
to F#5 about 17x's (clean). Also, a distorted C5 is hit 7x's. This is  the same
pattern in the verses.

1st verse:

B5                           A5 E5
Don't you walk out that door
      F#5
Don't even pet the dog on the floor
      B5                          A5 E5
Just take your things in the yard
    F#5                C5
And throw your keys anywhere....(repeat for each verse)

[Pre - Chorus]

B5
Heel over head
         F#5
Jet lag sky is painted white again
    B5
I'm heel over head
         F#5
Leave my eyes in the clouds again

[Chorus] - Distorted

B5                A5 B5 F#5
You don't save me  at   all
                        B5
You don't save me at all
                  A5 B5  F#5
You don't save me  at   all

You don't save me

Just follow the pattern...it's pretty straight forward. 

When he says: 
I'm sorry, and I'm sorry you don't See me, Hear me, Touch me, Bring me....
it's the same thing, just palm-mute the strings. 
Аккорд DАккорд B5Аккорд A5Аккорд E5Аккорд F#5Аккорд C5