Портал для гитаристов
gtars.ru

Puddle Of Mudd — She Hates Me

Вариант 1

 Artist: Puddle of Mudd
Song: She Hates Me
Album: Come Clean
Tuning: I used standard tuning (but if u want to use drop d tuning… use it!!!)
Could someone explain to me what the fuck is drop d tuning!!!
Email: torombolo70@hotmail.com
Please email me with  your comments and questions!! Yeah!!

In this song  I used this 4 chords!   F…Bb…G(but with bar)…C(but with bar).

Well the intro goes like this!!
Intro:

e|-------------------------------------------|   
B|-------------------------------------------|
G|-----2--------3---------4------------5-----|
D|-------------------------------------------| (repeat)
A|-----------1-----0-------------3--3----0---|
E|--1-----1-----------3-------3--------------|

Verses and Chorus: (remember that the G and C chords are
with bar on the third fret)

Verse 1:

F     Bb     G               C
Met a girl , thought she was grand.
F       Bb           G         C
Fell in love , found out first hand.
F    Bb         G       C
Went well for a week or two
F       Bb   G      C
Then it all came unglued
F    Bb    G              C
In a trap , trip I can’t grip
F     Bb                 G         C
Never thought I’d be the one who’d slip
F      Bb          G  C
Then I started to realize
F     Bb    G        C
I was livin one big lie

Chorus:

            F              Bb       G         C
She fucking hates me,                         trust
            F              Bb       G          C
She fucking hates me,               la la la love
    F       Bb           G        C              F       Bb
I tried too hard and she tore my feelings like I had none
    G            C
and ripped them away!!

 Verse2: (for the second verse it’s the same as the first one)

She was queen for about an hour
After that she got sour
She took all I ever had
No sign of guilt,  not feeling bad  nooooooo!!

In a trap , trip I can’t grip
Never thought I’d be the one who’d slip
Then I started to realize
I was livin one big lie

(Chorus) 

If someone has the solo please let me know thanks!!!  

One last thing!!

These are the chords I used! 

      F       Bb     G      C
.e|---1-------1------3------3------|
B|----1-------1------3------3------|
G|----2-------3------4------5------|
D|----3-------3------5------5------|
A|----3-------1------5------3------|
E|----1-------1------3------3------|

Yeah!!! Enjoy this great song!! 
Аккорд GАккорд CАккорд FАккорд Bb

Вариант 2

 Puddle Of Mudd
She Fucking Hates Me
Тrаnsсriто роr Маrсо Lesmes

Inтrо:

G|----------------------------|
D|----------------------------|
A|------2/3---3-----4/5-4-5-4-|
E|-3------------5-------------|

Сноrus:
G|-----------------------------|
D|-----------------------------|
A|------2/3333-------4/5-4-5-4-|
E|-3333---------5555-----------|

Again:

G|----------------------------|
D|----------------------------|
A|------2/3---3-----4/5-4-5-4-|
E|-3------------5-------------|

And:
G|-----------------------------|
D|-----------------------------|
A|------2/3333-------4/5-4-5-4-|
E|-3333---------5555-----------|

Соmеnтаriоs о dudas a ехеlооd@нотmаil.соm 

Вариант 3

 She Hates Me
P U D D L E   О F   M U D D
Tabbed by Aaron Bridgeman (leprosy_head@hotmail.com)

http://bogans.arecool.net

KEY:
pm. = palm mute

INТRО / VERSE:
e|-------------------------------|
B|------------2----------------4-|
G|----1-------2--------3-------4-|
D|----2-------2--------4-------4-|
A|----2----0-----0-----4----2----|
E|-0-----0----------2-----2------|

LATER VERSE:
e|---------------------------------|
B|---------------------------------|
G|---------------------------------|
D|-------------2---------------4---|
A|-----2---0-0-0-0-----4---2-2-2-2-|
E|-0-0-0-0---------2-2-2-2---------|
pm . .   . . .   . . .   . . .   .

СНОRUS:
e|---------------------------------|
B|---------------------------------|
G|---------------------------------|
D|---------2-2-2-2---------4-4-4-4-|
A|-2-2-2-2-0-0-0-0-4-4-4-4-2-2-2-2-|
E|-0-0-0-0---------2-2-2-2---------|

That's all it is. Good song.

 
Аккорд DАккорд EАккорд F

Вариант 4

 Intro

Chords:
    
    E     A     Gm      B

e-----------------------4-----------------------------------
b-----------------------4-----------------------------------
g---1-----2------3------4--44h6p4---------------------------
d----2-----2-------4----4-----------------------------------
a-------0------2--------2-----------------------------------
e-0---------------------2-----------------------------------

Verse
E      A    Gm               B
Met a girl thought she was grand
E      A    Gm               B
Fell in love found out first hand
E      A    Gm               B
Went well for a week or two
E      A    Gm               B
Then it started to come unglued

E      A    Gm               B
In a trap, trip i cant grip
E      A    Gm               B
neva thought id be the one who'dslip
E      A    Gm               B
then i started to realise
E      A    Gm               B
i was living one big lie

Chorus
E      A       
SHe fucking hates me
Gm          B
Trust
E                 A
She fuckin hates me
Gm          B
la la la la

I tried to hard and she tore my feeling liek i had none

and ripped them away.



Thats it! the tune and rythym are the same all the way through.

E-mail me with any suggestions or tabs: mikecarnell1985@hotmail.com 
Аккорд EАккорд AАккорд GmАккорд B

Вариант 5

 Verse
E      A    F#               B
Met a girl thought she was grand
E      A    F#               B
Fell in love found out first hand
E      A    F#               B
Went well for a week or two
E      A    F#               B
Then it started to come unglued

E      A    F#              B
In a trap, trip i cant grip
E      A    F#               B
neva thought id be the one who'dslip
E      A    F#               B
then i started to realise
E      A    F#               B
i was living one big lie

Chorus
E      A       
SHe fucking hates me
F#          B
Trust
E                 A
She fuckin hates me
F#          B
la la la la 
Аккорд EАккорд AАккорд F#Аккорд B

Вариант 6

 There are a lot of tabs out there for this song, and I'm not saying mine is 100%, but i think it's close.

INTRO / VERSE:
e|-------------------------------|
B|------------2----------------4-|
G|----1-------2--------3-------4-|
D|----2-------2--------4-------4-|
A|----2----0-----0-----4----2----|
E|-0-----0----------2-----2------|

Guitar 1: Verse
e|------------------------------------|
B|------------------------------------|
G|----------2-2-2-2-----------4-4-4-4-|
D|-2-2-2-2--2-2-2-2--4-4-4-4--4-4-4-4-|
A|-2-2-2-2--0-0-0-0--4-4-4-4--2-2-2-2-|
E|-0-0-0-0-----------2-2-2-2----------|
P.M..................................

Guitar 1: Chorus
e|------------------------------------|
B|------------------------------------|
G|----------2-2-2-2-----------4-4-4-4-|
D|-2-2-2-2--2-2-2-2--4-4-4-4--4-4-4-4-|
A|-2-2-2-2--0-0-0-0--4-4-4-4--2-2-2-2-|
E|-0-0-0-0-----------2-2-2-2----------|

If you want, insert a muted click or two in between chord-changes
to give a smoother and cooler-sounding transition.

Guitar 1: Solo
e-----------------------------------------------------------------
B-----------------------------------------------------------------
G---------3-3-3-3---3---5--5b--5~~--------3-3-3-3-4---4-5~~--5-5~-
D-3-3-3-3--------/5---5-----------3-3-3-3-----------5-------------
A-----------------------------------------------------------------
E-----------------------------------------------------------------

e-----------------------------------------------------------------
B-----------------------------------------------------------------
G----------15151515---15--17b~--1717~~----------15151515---16--17b
D-15151515----------17--17-------------15151515----------17--17---
A-----------------------------------------------------------------
E-----------------------------------------------------------------

Use a Wah-Wah pedal.

Guitar 1: Outro
e|------------------------------------|
B|------------------------------------|
G|----------2-2-2-2-----------4-4-4-4-|
D|-2-2-2-2--2-2-2-2--4-4-4-4--4-4-4-4-|
A|-2-2-2-2--0-0-0-0--4-4-4-4--2-2-2-2-|
E|-0-0-0-0-----------2-2-2-2----------|

You could lightly palm-mute this part but to get the
same sound that Wes does i suddest turning setting your
treble, middle, and bass to the same value, (preferably
one above 5) and turning your presence all the way down
while still using distortion.

Order: Intro x10 (clean)
       Chorus x4 (clean & steady)
       Verse x4  (distortion)
       Chorus x8 (distortion)
       Solo (let ring at end)
       Intro x2 (clean)
       Chorus x4 (distortion)
       Chorus x4 (wah-wah pedal & distortion)
       Outro x 3 (slightly palm-mute or
                  change equalization)

It's a really fun song to play and its great for beginners if they can get
the solo.  Good luck! 

Вариант 7

 E     A      F#              H
Met a girl , thought she was grand.
Fell in love , found out first hand.
Went well for a week or two
Then it all came unglued
In a trap , trip I can’t grip
Never thought I’d be the one who’d slip
Then I started to realize
I was livin one big lie

Припев:
            E         A F# H
She fucking hates me,     trust
          
She fucking hates me,la la la love
I tried too hard and she tore my feelings like 
I had none and ripped them away!!


She was queen for about an hour
After that she got sour
She took all I ever had
No sign of guilt,  not feeling bad  nooooooo!!

In a trap , trip I can’t grip
Never thought I’d be the one who’d slip
Then I started to realize
I was livin one big lie

Припев 

 
Аккорд EАккорд AАккорд F#Аккорд H

Вариант 8

 INTRO:

Munite:0.00/1.19 and 2.18/2.30
E---------------------------|
B---------------------------|
G---------------------------|
D----2-----7-----4-----9----|
A----2-----7-----4-----9----|
E--0---0-5---0-2---7-7------|



Munite:1.19/2.18 and 2.30/3.36

    E5        A5        F#5       H5
E-----------------------------------------|
B-----------------------------------------|
G-----------------------------------------|
D-2-2-2-2---7-7-7-7---4-4-4-4---9-9-9-9---|
A-2-2-2-2---7-7-7-7---4-4-4-4---9-9-9-9---|
E-0-0-0-0---5-5-5-5---2-2-2-2---7-7-7-7---|

Solo:

Minute: 1.55/2.12
e-----------------------------------------------------------------
b-----------------------------------------------------------------
g---------3-3-3-3---3---5--5b--5~~--------3-3-3-3-4---4-5~~--5-5~-
d-3-3-3-3--------/5---5-----------3-3-3-3-----------5-------------
a-----------------------------------------------------------------
e-----------------------------------------------------------------

e-----------------------------------------------------------------
b-----------------------------------------------------------------
g----------15151515---15--17b~--1717~~----------15151515---16--17b 2x
d-15151515----------17--17-------------15151515----------17--17---
a-----------------------------------------------------------------
e-----------------------------------------------------------------

Lyrics:

Met a girl, thought she was grand
fell in love, found out first hand
went well for a week or two
then it all came unglued

in a trapp trip I can't grip
never thought I'd be the one who'd slip
then I started to realize
I was living one big lie

She fucking hates me
trust
she fucking hates me
la la la love
I tried too hard
and she tore my feelings like I had none
and ripped them away

She was queen for about an hour
after that shit got sour
she took all I ever had
no sign of guilt
no feeling of bad, no

In a trapped trip I can't grip 
never thought i'd be the one who'd slip
then I started to realize
I was living one big lie

[Chorus]

that's my story, as you see
learned my lesson and so did she
now it's over and i'm glad 
'cause i'm a fool for all i've said

[Chorus]

la la la la la la la la la love
Trust
la la la la la la la la la love
Trust
and she tore my feelings like I had none
she fucking hates me

Bass Tabs:
G|---------------------------------|
D|---------------------------------|
A|---------0-0-0-0---------2-2-2-2-|
E|-0-0-0-0---------2-2-2-2---------|



I hope you understand this tab. Itґs a very easy tab. I like it very much. 
Аккорд E5Аккорд A5Аккорд F#5Аккорд H5

Вариант 9

 
She Hates Me-Puddle Of Mudd
Come Clean

Eb Tuning:
Eb Ab Gb Db Bb Eb


Intro:

Fig. 1

F           Bb        G        C

e--------------------------------------------
b--------------------------------------------
g-----2---------3--------4-------------5-----
d-----3---------3--------5-------------5-----
a--------0--1------0--------0--3----3-----0--
e-1-------------------3----------------------

Play Fig. 1 (throughout song)

met a girl, thought she was grand...

gtr. 1

e--------------------------------------------
b--------------------------------------------
g-----2---------3--------4-------------5-----
d-----3---------3--------5-------------5-----
a--------0--1------0--------0--3----3-----0--
e-1-------------------3----------------------

Fig. 2 (gtr. 2)
clean fills

e--------------------------------------------
b--------------------------------------------
g----------------------------------------5h7-
d--------------------------------------------
a--------------------------------------------
e--------------------------------------------

gtr. 1

e--------------------------------------------
b--------------------------------------------
g-----2---------3--------4-------------5-----
d-----3---------3--------5-------------5-----
a--------0--1------0--------0--3----3-----0--
e-1-------------------3----------------------

gtr. 2

e--------------------------------------------
b--------------------------------------------
g-5--------------------------------------5h7-
d--------------------------------------------
a--------------------------------------------
e--------------------------------------------

gtr. 1

e--------------------------------------------
b--------------------------------------------
g-----2---------3--------4-------------5-----
d-----3---------3--------5-------------5-----
a--------0--1------0--------0--3----3-----0--
e-1-------------------3----------------------

gtr. 2

e--------------------------------------------
b--------------------------------------------
g-5--------------------------------------5h7-
d--------------------------------------------
a--------------------------------------------
e--------------------------------------------

gtr. 1

e--------------------------------------------
b--------------------------------------------
g-----2---------3--------4-------------5-----
d-----3---------3--------5-------------5-----
a--------0--1------0--------0--3----3-----0--
e-1-------------------3----------------------

gtr. 2

e--------------------------------------------
b--------------------------------------------
g-5--------7----------7--5-------------------
d---------------------------7--5-------------
a--------------------------------------------
e--------------------------------------------

Chorus: Fig. 1

gtr. 3

e-1---1---------------3--3-------------------
b-1---1-----3---3-----3--3-----5-----5--5----
g-2---2-----3---3-----4--4-----5-----5--5----
d-3---3-----3---3-----5--5-----5-----5--5----
a-3---3--x--1---1--x--5--5--x--3-----3--3--x-
e-1---1--x---------x--3--3--x--------------x-

Verse 2: w/ Fig. 1

e-1-1-1-1---------3-3-3-----------1-1-1-1---------3-3-3-----------
b-1-1-1-1-3-3-3-3-3-3-3-5-5-5-5-5-1-1-1-1-3-3-3-3-3-3-3-5-5-5-5-5-
g-2-2-2-2-3-3-3-3-4-4-4-5-5-5-5-5-2-2-2-2-3-3-3-3-4-4-4-5-5-5-5-5-
d-3-3-3-3-3-3-3-3-5-5-5-5-5-5-5-5-3-3-3-3-3-3-3-3-5-5-5-5-5-5-5-5-
a-3-3-3-3-1-1-1-1-5-5-5-3-3-3-3-3-3-3-3-3-1-1-1-1-5-5-5-3-3-3-3-3-
e-1-1-1-1---------3-3-3-----------1-1-1-1---------3-3-3-----------

Chorus:

Guitar Solo:

e-----------------------------------------------------------------
b-----------------------------------------------------------------
g---------3-3-3-3---3---5--5b--5~~--------3-3-3-3-4---4-5~~--5-5~-
d-3-3-3-3--------/5---5-----------3-3-3-3-----------5-------------
a-----------------------------------------------------------------
e-----------------------------------------------------------------

e-----------------------------------------------------------------
b-----------------------------------------------------------------
g----------15151515---15--17b~--1717~~----------15151515---16--17b
d-15151515----------17--17-------------15151515----------17--17---
a-----------------------------------------------------------------
e-----------------------------------------------------------------

that’s all



trevor jones
timmy91199@yahoo.ca
 
Аккорд EbАккорд AbАккорд GbАккорд DbАккорд BbАккорд FАккорд GАккорд C

Вариант 10

 -------------------------------------------------------------------------------
			     She Hates Me - puddle of mudd
-------------------------------------------------------------------------------

By:zero
standard tunning:EADGBe
standard tunning:bass: EADG
Played with distortion

guitar 1:intro/verse(well the first few)[played clean]
e|--------------------------------------------|
B|--------------------------------------------|
G|---1-------2-------3----------4-------------|
D|--------------------------------------------|
A|---------0---0-----------2-2-----2----------|
E|-0----0---------2-----2---------------------|

Guitar 2: verse[distorted, and maybe with a little chorus]
e|--------------------------------------------|
B|--------------------------------------------|
G|----------2-2-2-2-----------4-4-4-4--4-6p-4-|
D|-2-2-2-2-----------4-4-4-4------------------|
A|--------------------------------------------|
E|--------------------------------------------|

Guitar 1:chorus
e|------------------------------------|
B|------------------------------------|
G|----------2-2-2-2-----------4-4-4-4-|
D|-2-2-2-2--2-2-2-2--4-4-4-4--4-4-4-4-|
A|-2-2-2-2--0-0-0-0--4-4-4-4--2-2-2-2-|
E|-0-0-0-0-----------2-2-2-2----------|

Guitar 2:chorus
e|------------------------------------|
B|------------------------------------|
G|----------------------------4-4-4-4-|
D|-2-2-2-2--7-7-7-7--4-4-4-4--x-x-x-x-|
A|-x-x-x-x--x-x-x-x--x-x-x-x--2-2-2-2-|
E|-0-0-0-0--5-5-5-5--2-2-2-2----------|

Guitar 1:solo/played with wah
e|----------5-5-5-5-----------7-7-7-7-|
B|-5-5-5-5--x-x-x-x--7-7-7-7--x-x-x-x-|
G|-x-x-x-x--2-2-2-2--x-x-x-x--4-4-4-4-|
D|-2-2-2-2-----------4-4-4-4----------|
A|------------------------------------|
E|------------------------------------|
  E5        A5       F#5       B5     

Guitar 2 plays the power chords below during solo., and just in case if 
you dont know how to play the choards, there the same as guitar 1's chorus.

Bass loop:played in different timming.
G|------------------------------------|
D|------------------------------------|
A|----------0-0-0-0-----------2-2-2-2-|
E|-0-0-0-0-----------2-2-2-2----------|

well, im pretty sure this is the whole song, any way i wont go into what 
should be played when stuff, its should all be here, just play. any way peace!

=============================================================================== 
Аккорд E5Аккорд A5Аккорд F#5Аккорд B5