Портал для гитаристов
gtars.ru

Puff Daddy — Bad Boy For Life

Вариант 1

 Tabbed by - Distortion Devil

Song: Bad Boy For Life
Artist: P. Diddy 
Notes: every - is an eighth note
Bars: in every bar are eight counts or -'s
Bar separators: | (this doesn't mean pause, it just keeps the tabs cleaner)
Let Ring: ~
 

Intro

e||--------|--------||
B||--------|--------||
G||--------|--------||
D||--------|--------||
A||--------|04204204||
E||2~~~~~~~|--------||


Riff (Repeat for rest of song)

e||--------|---------|--------|--------|--------|--------|--------||
B||--------|---------|--------|--------|--------|--------|--------||
G||--------|---------|--------|--------|--------|--------|--------||
D||--------|---------|--------|--------|--------|--------|--------||
A||--------|12-9-7-9-|---7-4--|4-2-4---|4-4-2-0-|------42|--------||
E||-2-2----|---------|--------|--------|--------|2-2-----|5-2-2-2-||

That's it.  If the timing isn't working just listen to how the song goes and
you'll figure it out.

ps Please rate my tab 

Вариант 2

 Puff Daddy-Bad boy for life.
 Tabbed by Tyler Elmergreen  Dreamcastboy@webtv.net.
  


this is my first tab and i say this song is 100 % perfect. this song is really tight and easy to play.


(b----12-9-7-9-7-4-4-2-4--4-4-2-0---4-2
(e-2-2---------------------------2-2---2-2-1-2




 

Вариант 3

 -------------------------------------------------------------------------------

Tabbed By : Greg
e-mail: ciberfrije@yahoo.com

Tuning: Standard

G|---------------------------------------------------------------------------|
D|---------------------------------------------------------------------------|
A|------12-9-7-9--9-7--4-2-4--4-4-4-0-----4-2-0------------------------------|
E|-2-2-------------------------------2-2--------2-0-2------------------------| 
 -------------------------------------------------------------------------------

Tabbed By : Greg
e-mail: ciberfrije@yahoo.com

Tuning: Standard

G|---------------------------------------------------------------------------|
D|---------------------------------------------------------------------------|
A|------12-9-7-9--9-7--4-2-4--4-4-4-0-----4-2-0------------------------------|
E|-2-2-------------------------------2-2--------2-0-2------------------------| 

Вариант 4

 *standard tuning*

-intro-

e----------------------------
b----------------------------
d----------------------------
g----------------------------
a-5-3-5-3--------------------
e---------6------------------

(repeat once)

-rest of the song-
e-----------------------------------------------------------
b-----------------------------------------------------------
d-----3-----------------------------------------------------
g-------5-3-5---3-------------------------------------------
a-----------------5----5-3-5---5-5-3------5-3---------------
e-33---------------------------------6-33-----6-3-6-3-------


That's the song, play it over and over. 

Вариант 5

 P Diddy
Bad boy for life

 

Tabulation by
Andreas Svensson 2001
chromosomesc@hotmail.com
(99,9% accuracy guaranteed)

 

Tune down E-major to D.
Listen to the song and catch the right rhythm.
~ = slide downwards
ґ = let note ring slightly

 

e|------------------------------------------------------------
B|------------------------------------------------------------
G|------------------------------------------------------------
D|----------7-4------------------------------------------------
A|------~7------7-9--4-2--4-2-4--4-4-2-0------4-2-0ґ--0-------
D|--4-4--------------------------------------4-4---------4---4--start over from the beginning--

 

refer to e-mail for questions.

 
Аккорд D

Вариант 6

 Puff Daddy, Bad Boy For Life!.
 Tabbed by Michael Sanchez, ciamissions@hotmail.com.
  
This is from Puff Daddy's New Album (2001)

*Standard Tuning* *Overdrive Pedal Optional*

(repeat For whole Song)

A------7-12-9-7-9-4-2-4-2-4-44420---420---0--------
E--2-2----------------------------22----2---2--22--

Listen to the album for how the beat goes.

E-mail For Questions---Mike S.


 

Вариант 7

 |-----------------------------5-3---3--3----------|*lots
|-5-3---------5-3-----------------5------5--5-3-5-|
|-----6-3-3-------6 3 6 3 3 3---------------------|
|-------------------------------------------------|


i dont know if there's any more coz i aint got the CD i jus figured it off the t.v thanx 
Аккорд CD

Вариант 8

 Artist: Puff Daddy
Song: Bad Boys For Life
Tabbed by foyamos

Standard tuning

Hi everybody, here's the adaption for this good song... I think it's correct, but we never know... Enjoy it!

G |-0-0---12-9--7-9--7-9--7-5-7--77-55-3-0-7-5-3-0-00-|
D |---------------------------------------------------|
A |---------------------------------------------------|
E |---------------------------------------------------|

Here you are... 
Аккорд GАккорд DАккорд AАккорд E

Вариант 9

                Intro
E|-----------------------------------|
B|-----------------------------------|
G|-----------------------------------|
D|---------------------------3-------|
A|--------5--3---------5--3----------|
E|---3--6---------6--3---------------|


                    The Rest Of the song
E|-------------------------------------------------------------|
B|-------------------------------------------------------------|
G|---------3---------------------------------------------------|
D|-------3----5--3--5------------------------------------------|
A|---------------------5-5--3--5---5--3--5--------5--3---------|
E|-3-3-------------------------------------6--3-3------6--3-3-3|
     Repeat over and over again for as long as the song does. 

Вариант 10

 Tabbed By : MAD
e-mail: darkdragon@core.com

Tuning:

G|----------------------------------------------------------------------|
D|-------7-4--2--4--2---------------------------------------------------|
A|---------------------4-4-0-4--4---0-0-2-2-0-2-0-2---------------------|
E|-2-2------------------------------------------------------------------|

G|----------------------------------------------------------------------|
D|-------7-4--2--4--2---------------------------------------------------|
A|---------------------4-4-0-4--4---0-0-2-2-0-2-0-2---------------------|
E|-2-2------------------------------------------------------------------|



this song was easy it took tops 10 minutes i hope you like it 

Вариант 11

 #-----------------------------------------------------------------------------#
#-- File created with Instab - http://www.pconline.com/~smcarey/instab.html --#
#-----------------------------------------------------------------------------#

Author/Artist: P Diddy and The Bad Boy Family
Title: Bad Boy For Life
Album: ?
Transcribed by: Ben DiPette
Tune Down a Half Step

Eb
Bb
Gb
Db
Ab
Eb

--------------------------|---------------------------------------------------
--------------------------|---------------------------------------------------
--------------------------|---------------------------------------------------
--------------------------|---------------------------------------------------
----3--5--3--------5--3---|---------------------------------------------------
-3-----------6--3--------6|---------------------------------------------------
    Intro                                                                     

------------------------------------------------------------------------------
------------------------------------------------------------------------------
------------------------------------------------------------------------------
------8--5-3--5--3--0--0----0--0--0-------------0-----------------------------
--------------------------3----------3-------------3--------------------------
-3-3------------------------------------6--3--3-------6--3--3-----------------
      Repeats Throughout Whole Song, Note  After The First Two Notes on       

----------------------------3-/-5---------------------------------------------
----------------------------3-/-5---------------------------------------------
----------------------------3-/-5---------------------------------------------
----------------------------3-/-5---------------------------------------------
----------------------------3-/-5---------------------------------------------
----------------------------3-/-5---------------------------------------------
 Bottom String, You can do a       Make Sure it Is Somewhat Palm Muted, And   

 not Exact                                                                    

 
Аккорд EbАккорд BbАккорд GbАккорд DbАккорд Ab