Портал для гитаристов
gtars.ru

Puff Daddy — Come With Me

Вариант 1

 Author/Artist: Puff Daddy featuring Jimmy Page
Title: Come With Me
Album: Godzilla Soundtrack

*DROP D TUNING

Riff A:
E----------------------------------------------------------|
B----------------------------------------------------------|
G---2-2-2---3-3-3--3-3-3---4-4-4--4-4-4---5-5-5--5-5-5---7-|
D---0-0-0---0-0-0--0-0-0---0-0-0--0-0-0---0-0-0--0-0-0---0-|
A----------------------------------------------------------|
D-0-------0--------------0--------------0--------------0---|
                                                                              
Riff B:
E-------------------------------|
B-------------------------------|
G-12-11-10--9-7-6-5-4-3-2-------|
D-12-12-10-10-7-7-5-5-3-3-3-2-0-|
A-------------------------------|
D-------------------------------|
                                                                              
Riff C:
E---------------------------------------------|
B---------------------------------------------|
G-3-3-3---4-4-4--4-4-4---5-5-5--5-5-5---7-7-7-|
D-0-0-0---0-0-0--0-0-0---0-0-0--0-0-0---0-0-0-|
A---------------------------------------------|
D-------0--------------0--------------0-------|
                                                                              
Riff D: He has no idea.

Riff E:
E-------------------------------------|
B-------------------------------------|
G-7-7-7--7-7-7--7-7-7--7-7-7--7-7-7-5-|
D-0-0-0--0-0-0--0-0-0--0-0-0--0-0-0-0-|
A-------------------------------------|
D-------------------------------------|
                                                                              
Riff F:
E|------------------------------------------|
B|------------------------------------------|
G|--------------147------------------------|
D|--7---7---7---147---7--------------------|
A|--7---7---7---125---7---8--7--5--0--3--5-|
E|--5---5---5--------------5----------------|
                                                                              
Riff G:
E------------------------------------------------------------------------------
B-15-15-15--15-15-15----14-14-14--14-14-14--12-12-12--12-12-12--10-10-10-------
G------------------------------------------------------------------------------
D------------------------------------------------------------------------------
A------------------------------------------------------------------------------
D------------------------------------------------------------------------------
                                                                              
E------------------------------------------------------------------------------
B-------15-15-15---------------------------------------------------------------
G-9-9-9----------14-14-14--12-12-12--12-12-12--10-10-10--10-10-10--------------
D-----------------------------------------------------------------9-9-9-9/14---
A------------------------------------------------------------------------------
D------------------------------------------------------------------------------
                                                                              
E----------|
B-15-15-15-|
G----------|
D----------|
A----------|
D----------|

He said that's it. You can figure out the order they go back to, cause I sure as
$#%& don't know how the song really goes. 
Аккорд D

Вариант 2

 sorry to burst anyone's bubble, but this is the exact same thing as
Kashmir by Led Zeppelin.  It goes like this:
                                                      /=slide up
                                                      *=let ring
Intro                                                 x=mute
-------------------------------------------------------------------|
-------------------------------------------------------------------|
-4-4-4--4-4-4---5-5-5--5-5-5---6-6-6--6-6-6---7-7-7--7-7-7---9-9-9-|
-x-x-x--x-x-x---x-x-x--x-x-x---x-x-x--x-x-x---x-x-x--x-x-x---x-x-x-|
-2-2-2--2-2-2---3-3-3--3-3-3---4-4-4--4-4-4---5-5-5--5-5-5---7-7-7-|
--------------0--------------0--------------0--------------0-------|

Outro (I had to guess on this one, since the only thing you can hear
are the violins)

-------------------------------------------------------------------------------|
-------------------------------------------------------------------------------|
13-13-13--13-13-13---11-11-11--11-11-11--9-9-9--9-9-9---7-7-7--7/13*--13-13-13-|
xx-xx-xx--xx-xx-xx---xx-xx-xx--xx-xx-xx--x-x-x--x-x-x---x-x-x--x-xx---xx-xx-xx-|
11-11-11--11-11-11---9--9--9---9--9--9---7-7-7--7-7-7---5-5-5--5/11*--11-11-11-|
-------------------0-------------------0--------------0------------------------|

i did the best i could with the outro, so try not to be too hard on me.
      thanks. 

Вариант 3

   BTAB: Come With Me
Artist: PuffDaddy f/Jimmy Page
 Album: Godzilla (soundtrack)
Author: Rattman (jratt0@hotmail.com)

**Padrino's Bass Tab Exclusive!**

G---------------------------
D-0-0-0--12-12-12--12-12-12-
A---------------------------
E---------------------------

This repeats through the whole song. I think there is another section, I will
add it when I get a recording.

Taken from Padrino's Bass Tab Archive:
 

Вариант 4

 The intro is the same thing as Kashmir by Led Zeppelin.

Intro
-----------------------------------------------------
-----------------------------------------------------
-4-4-4--4-4-4---5-5-5--5-5-5---6-6-6--6-6-6---7-7-7--
-x-x-x--x-x-x---x-x-x--x-x-x---x-x-x--x-x-x---x-x-x--
-2-2-2--2-2-2---3-3-3--3-3-3---4-4-4--4-4-4---5-5-5--
--------------0--------------0--------------0-------- 
(Continued)
----------------       x=mute
----------------       /=slide 
7-7-7----9-9-9--       *=let ring
x-x-x----x-x-x--
5-5-5----7-7-7--
------0---------

I had to guess at the outro considering the only thing you can hear are the violins.
------------------------------------------------------
------------------------------------------------------
13-13-13---13-13-13--11-11-11--11-11-11---9-9-9--9-9-9
xx-xx-xx---xx-xx-xx--xx-xx-xx--xx-xx-xx---x-x-x--x-x-x
11-11-11---11-11-11---9--9--9---9--9--9---7-7-7--7-7-7
--------------------0-------------------0-------------
(Continued)

---------------------------------------------------
---------------------------------------------------
--7-7-7--7*/13-13-13-------------------------------
--x-x-x--------------------------------------------
--5-5-5--5*/11-11-11-------------------------------
0-------------------------------------------------- 

Вариант 5

 sorry to put down anyone's hard work, but this is the exact same thing as Kasmir by Led Zeppelin.  Here it is:

Intro
----------------------------------------------------------
----------------------------------------------------------
-4-4-4--4-4-4---5-5-5--5-5-5---6-6-6--6-6-6---7-7-7--7-7-7
-x-x-x--x-x-x---x-x-x--x-x-x---x-x-x--x-x-x---x-x-x--x-x-x
-2-2-2--2-2-2---3-3-3--3-3-3---4-4-4--4-4-4---5-5-5--5-5-5
--------------0--------------0--------------0-------------

----------                               /=slide down
----------                               x=mute
---9-9-9--                               ~=let ring
---x-x-x--
---7-7-7--
-0--------


Outro  (I had to guess at this one, since you can't really hear anything but the violins)

------------------------------------------------------
------------------------------------------------------
13-13-13--13-13-13---11-11-11--11-11-11--9-9-9--9-9-9-
xx-xx-xx--xx-xx-xx---xx-xx-xx--xx-xx-xx--x-x-x--x-x-x-
11-11-11--11-11-11---9--9--9---9--9--9---7-7-7--7-7-7-
-------------------0-------------------0--------------

-------------------------------------------------------
-------------------------------------------------------
--7-7-7--7~/13--13-13-13-------------------------------
--x-x-x--x------xx-xx-xx-------------------------------
--5-5-5--5~/11--11-11-11-------------------------------
0------------------------------------------------------

There it is, let me know how you like it. 

Вариант 6

 Title:     Come With me
Artist:    Jimmy Page & Puff Daddy
Album:     Godzilla Soundtrack
Tuning:    Standard(EADGBE)
Tabbed by: Andrew Jackson(2/14/2002)

this is all i know...its basically the majority of the song...you just play it over and over...i know this isnt the greatest tab but it tells you what you need to know

E|-------------------------------------------------
B|-------------------------------------------------
G|222--222-0-333-333-0-444-444-0-555-555-777-------
D|000--000-0-000-000-0-000-000-0-000-000-000-------
A|-------------------------------------------------
E|-------------------------------------------------