Портал для гитаристов
gtars.ru

Puff Daddy — I Dont Wanna Know

 e|-1-0-------------------------------0-0-1-0-------------|
B|-----3-2-3-0-3-2-2-2-3-2-0-2-3-0-3---------3-2-3-------|
G|-------------------------------------------------------|
D|-------------------------------------------------------|
A|-------------------------------------------------------|
E|-------------------------------------------------------|


e|-1-0-------------------------------0-0-1-0-------------|
B|-----3-2-3-0-3-2-2-2-3-2-0-2-3-0-3---------3-2-0-------|
G|-------------------------------------------------------|
D|-------------------------------------------------------|
A|-------------------------------------------------------|
E|-------------------------------------------------------|

HoPe It'S rIgHt  =)