Портал для гитаристов
gtars.ru

Puff Daddy — Ill Be Missing You

Вариант 1

 Artist: Puff Daddy featFaith Evans and 112
Song: I'll be missing you
Album: No way out
Tabbed by: FenderStratBlinkRocks182
We all love ya biggie!
This song was written after Notorious B.I.G was shot.
E----------------------------------------
B----------------------------------------
G------------4-------------------4-------
D-------7------7----7-------7------7----7
A-----5----5------5-------5----5------5--
E---3-------------------3----------------
           
 
E-------------------------------------
B-------------------------------------
G----------0-----------------0-------
D------4-----4---4-------4-----4----
A----2---2-----2-------2---2-----2--
E--0-----------------0----------------
      
E---------------------------------------
B---------------------------------------
G-------7----5--------------9---7------7
D-----5--------5---5-----7-------7-----7
A---3------------3-----5-------------5--
E---------------------------------------

E-----------------------------------
B-----------------------------------
G-----------4----------------4------
D-------7-----7---7------7-----7---7
A-----5---5-----5------5---5-----5--
E---3----------------3--------------

Here's the lyrics:
I want y'all to check out
This is a Bad Boy tribute to my man the Notorious B.I.G.
which features myself, Faith and 112
Rest in peace B.I.G -- we miss ya


Seems like yesterday we used to rock the show
I laced the track, you locked the flow
So far from hangin on the block for dough
Notorious they got to know that
Life ain't always what it seems to be
Words can't express what you mean to me
Even though you're gone, we still a team
Through your family, I'll fulfill your dream
In the future, can't wait to see
If you'll open up the gates for me
Reminisce some time, the night they took my friend
Try to black it out, but it plays again
When it's real, feelings hard to conceal
Can't imagine all the pain I feel
I'd give anything to hear half your breath
I know you're living you life -- after death

Faith Evans & 112

Every step I take, Every move I make
Every single day, every time I pray -- I'll be missing you
Thinking of the day, when you went away
What a life to take, what a bond to break -- I'll be missing you


It's kinda hard with you not around
Know you in heaven smiling down
Watching us while we pray for you
Every day we pray for you
Til the day we meet again
In my heart is where I'll keep you friend
Memories give me the strength I need to proceed
The strength I need to believe
My thoughts B.I.G. I just can't define
Wish i can turn back the hands of time
Us in the 6th, shopping for new clothes and kicks
You and me taking flicks, making hits
Stages they received you on
I still can't believe you're gone
I'd give anything to hear half your breath
I know your living you life -- after death 


Faith Evans & 112

Somebody tell me why, one glad morning
I know -- I'll see your face

112

Every night I pray, every step I take
Every move I make, every single day
(repeat 3X)
Every move I make

 
Аккорд BАккорд G

Вариант 2

 puff daddy / i`ll be missing you.
 Tabbed by memphis J.
  
Main riff

_____________________________________________________________________
_____________________________________________________________________
_____________________________________________________________________
_____________________________________________________________________
______________________________________________________________7______
_______9____7___________7________________5____________5______________
__5___________________3______________________________________________

x2

then
_____________________________________________________________________
_____________________________________________________________________
_____________________________________________________________________
_____________________________________________________________________
_________________0____________________________________________4______
________4__________4_____________________2___________2_______________
2____________________0_______________________________________________
   x2               
   Then
_______________________________________________________________
_______________________________________________________________
________________________________________________7_____5________
_____________9____7____________5________________5____________7_
____________7_____3________________________3___5_______________
______5_______________________________________________________          

Then play the 1st lil` bit twice and then repeat through the whole song.
Althogh you might think it, this song can`t be converted to the police hit.
 
:: Ultimate Guitar Archive :: 
http://www.ultimate-guitar.com 



 

Вариант 3

 I'll be missing you
g :320000
em:022000
c :032010
d :000232

G
--------------------------------------------
---------0------------------0---------------
-----0-------0----------0-------0-----------
---0---0---0---0------0---0---0---0---------
--------------------------------------------
-3------------------3-----------------------

Em
--------------------------------------------
---------0------------------0---------------
-----0-------0----------0-------0-----------
---2---2---2---2------2---2---2---2---------
--------------------------------------------
-0------------------0-----------------------

C                   D
---------0------------------2----------------
-----1-------1----------3-------3------------
---0---0---0---0------2---2---2---2----------
--------------------0------------------------
-3-------------------------------------------
---------------------------------------------

G
--------------------------------------------
---------0------------------0---------------
-----0-------0----------0-------0-----------
---0---0---0---0------0---0---0---0---------
--------------------------------------------
-3------------------3-----------------------

play this the entire song.

Seems like yesterday we used to rock the show
I laced the track, you locked the flow
So far from hangin on the block for dough
Notorious they got to know that
Life ain't always what it seems to be
Words can't express what you mean to me
Even though you're gone, we still a team
Through your family, I'll fulfill your dream
In the future, can't wait to see
If you'll open up the gates for me
Reminisce some time, the night they took my friend
Try to black it out, but it plays again
When it's real, feelings hard to conceal
Can't imagine all the pain I feel
I'd give anything to hear half your breath
I know you're living you life -- after death

Every step I take, Every move I make
Every single day, every time I pray -- I'll be missing you
Thinking of the day, when you went away
What a life to take, what a bond to break -- I'll be missing you


It's kinda hard with you not around
Know you in heaven smiling down
Watching us while we pray for you
Every day we pray for you
Til the day we meet again
In my heart is where I'll keep you friend
Memories give me the strength I need to proceed
The strength I need to believe
My thoughts B.I.G. I just can't define
Wish i can turn back the hands of time
Us in the 6th, shopping for new clothes and kicks
You and me taking flicks, making hits
Stages they received you on
I still can't believe you're gone
I'd give anything to hear half your breath
I know your living you life -- after death 

Somebody tell me why, one glad morning
I know -- I'll see your face

Every night I pray, every step I take
Every move I make, every single day
(repeat 3X)
Every move I make

tabbed by Niels DRM. 
Аккорд GАккорд EmАккорд CАккорд DАккорд B