Портал для гитаристов
gtars.ru

Reef — Mellow

 ARTIST=REEF
SONG=MELLOW
TABBED BY PAUL MCCARTHY

THIS SONG IS PRETTY SIMPLE ALTHOUGH IF YOUR ACCOUSTIC
GUITAR HAS A STIFF ACTION THEN IT CAN BE DIFFICULT TO
PLAY THROUGH. ANYWAY, THIS THE INTRO AND VERSE


E-12-12-12-12-8--8--8--8--8--5-5-5-5-5----------------------|
A-14-14-14-14-10-10-10-10-10-7-7-7-7-7----------------------|
D-14-14-14-14-10-10-10-10-10-7-7-7-7-7----------------------|
G-13-13-13-13-9--9--9--9--9--6-6-6-6-6----------------------|
B-12-12-12-12-8--8--8--8--8--5-5-5-5-5----------------------|
E-12-12-12-12-8--8--8--8--8--5-5-5-5-5----------------------|

i'VE NOT PUT IN THE TIME SIGNITURE BUT I'M SURE YOU'L GET IT
THE CHORUS GOES.....

E-8--8--8--8--8--10-10-10-10-10-5-5-5-5-5-5-5-5-------------------|
A-10-10-10-10-10-12-12-12-12-12-7-7-7-7-7-7-7-7-------------------|
D-10-10-10-10-10-12-12-12-12-12-7-7-7-7-7-7-7-7-------------------|
G-9--9--9--9--9--11-11-11-11-11-6-6-6-6-6-6-6-6-------------------|
B-8--8--8--8--8--10-10-10-10-10-5-5-5-5-5-5-5-5-------------------|
E-8--8--8--8--8--10-10-10-10-10-5-5-5-5-5-5-5-5-------------------|

SEE, JUST E SHAPED BARRE CHORDS ALL THE WAY THROUGH, A
COOL CAMP FIRE SONG FOR THE FESTIVAL CROWD.
ANY CORRECTIONS, ADDITIONS OR GENERAL COMMENTS
PLEASE SEND TO KORINA62@AOL.COM 
Аккорд AАккорд BEАккорд E