Портал для гитаристов
gtars.ru

Reel Big Fish — Beer

 This is a gret song by the Reel Big Fish.  If you want the right tab here it is.


Intro

E---5-----1-----3-----3-----------------------------------------
B---5-----1-----3-----3-----------------------------------------
G---5-----2-----5-----4-----------------------------------------
D---7-----3-----------5-----------------------------------------
A---------------------------------------------------------------
E---------------------------------------------------------------

1st Solo

E---5-5-5-----------10-13-13-13-10----10----------------------------------
B---------5-/-10-13----------------13----10-8-----------^^^^^ect.---------
G---------------------------------------------9-7-5-7-5-7---------5-------
D-------------------------------------------------------------------7-----
A-------------------------------------------------------------------------
E-------------------------------------------------------------------------

Verse

E---5-----1-----3-----3------------------------------------------
B---5-----1-----3-----3------------------------------------------
G---5-----2-----5-----4------------------------------------------
D---7-----3-----------5------------------------------------------
A----------------------------------------------------------------
E----------------------------------------------------------------

Chorus

E-------------------------------------------------------------------
B-------------------------------------------------------------------
G---------5---------------------------------------------------------
D---3-----5-----5-----5---------------------------------------------
A---3-----3-----5-----5---------------------------------------------
E---1-----------3-----3---------------------------------------------

1st Solo

Verse

Chorus

2nd Solo

E----------------------------------------------------------------------
B---10-10-10---8----------^--------------------------------------------
G------------9---9-8-7-5--7-5--------------5h7-7-9-7-5h7---------------
D-------------------------7-------7------7---------------7-555-7-555-7-
A----------------------------------------------------------xxx-x-xxx-x-
E-----------------------------5-5---5-5--------------------333-5-333-5-
    
E----^-------17-17-17-20-20-20-22-22-22--------------------------
B---15-13----17-17-17-20-20-20-22-22-22--------------------------
G---------14-----------------------------------------------------
D----------------------------------------------------------------
A----------------------------------------------------------------
E----------------------------------------------------------------

Verse

Fill Ins
E---------
B---^-----
G---7-5---
D-------7-
A---------
E---------

E---------------
B---------------
G-----------5-7-
D-------5-7-----
A---5-7---------
E---------------

Chorus

1st Solo

Outro

E----------------------------------------------------------------
B----------------------------------------------------------------
G-----------555--------------------------------------------------
D---777-333-xxx-555----------------------------------------------
A---xxx-xxx-333-xxx----------------------------------------------
E---555-111-----333----------------------------------------------

End on

E-----
B-----
G-----
D---7-
A---7-
E---5- 
Аккорд E---------Аккорд G---7-5---Аккорд D-------7-Аккорд A---------Аккорд E-----Аккорд B-----Аккорд G-----Аккорд D---7-Аккорд A---7-

Reel Big Fish — Beer

 Reel Big Fish, Beer.
Tabbed by Jason Letkiewicz, smokey_bear101@yahoo.com.
  
Reel Big Fish
Beer

Chords
|5| |1| |3| |3|
|5| |1| |5| |3|
|5| |2| |5| |4|
|7| |3| |3| |5|
|7| |3| |3| |5|
|5| |1| |3| |3|

Liten for when to play each bar....
A sweet song by a sweet band.
Jason Letkiewicz 
:: Ultimate Guitar Archive :: 
http://www.ultimate-guitar.com 

 
Аккорд A

Reel Big Fish — Beer

 -----------------------------------------------------------------------------
                        Beer - Reel Big Fish
-----------------------------------------------------------------------------

By:Jeff Hernandez (allroy19@idt.net)


	from Joseph's Reel Big Fish Page at:
	http://www.geocities.com/SunsetStrip/Studio/3144/
==========================================================================
  *PLEASE DO NOT PUT THESE TABS ON YOUR OWN PAGE W/0 ASKING ME FIRST.*



     Harmonic intro
G|--5---------12-------------------------------------------------------------|
D|5---5----12-----12--------------------------------------------------------|
A|---------------------------------------------------------------------------|
E|---------------------------------------------------------------------------|
     5 times                           on the 6th one play:
G|-----------------------------------|---------------------------------------|
D|----2-----------------2-5----------|----2----------------------------------|
A|0-3---3----0-3----3-5----------2-5-|0-3---3----0-3----2-2-22---------------|
E|---------1-----1-----------3-5-----|---------1-----1---------3-3/----------|


G|---------------------------------------------------------------5-77-77-54--|
D|--------------5-3----------------------------------5-3----5-77------------7|
A|----3-1---3-3-----5------2-5-----2-5-----3-1---3-3-----5-------------------|
E|1-1-----3------------3-5-----3-5-----1-1-----3-----------------------------|

     5 times                           on the 6th one play:
G|-----------------------------------|---------------------------------------|
D|----2-----------------2-5----------|----2----------------------------------|
A|0-3---3----0-3----3-5----------2-5-|0-3---3----0-3----2-2-22---------------|
E|---------1-----1-----------3-5-----|---------1-----1---------3-3/----------|

G|---------------------------------------------------------------5-77-77-54--|
D|--------------5-3----------------------------------5-3----5-77------------7|
A|----3-1---3-3-----5------2-5-----2-5-----3-1---3-3-----5-------------------|
E|1-1-----3------------3-5-----3-5-----1-1-----3-----------------------------|
    3 times
G|-----------------------------------|-------------------------------------16-19-|
D|----2-----------------2-5----------|----2------7-10----------14-17--17-19---|
A|0-3---3----0-3----3-5----------2-5-|0-3---3--8------8--15-17----------------|
E|---------1-----1-----------3-5-----|---------------------------------------|
    slow part 
G|-------------------------0-------------------------------0----12-10------------|
D|-----2---------------0-2-------------2---------------0-2------------12-10------|
A|0--3---3----0-3----3------------0--3---3----0-3----3----------------------12-10|
E|----------1-----1----------3b-------------1-----1------------------------------|

G|---------------------------------------------------------------5-77-77-54--|
D|--------------5-3----------------------------------5-3----5-77------------7|
A|----3-1---3-3-----5------2-5-----2-5-----3-1---3-3-----5-------------------|
E|1-1-----3------------3-5-----3-5-----1-1-----3-----------------------------|
          6 times
G|-----------------------------------|---------------------------------------|
D|----2-----------------2-5----------|----2----------------------------------|
A|0-3---3----0-3----3-5----------2-5-|0-3---3----0-3----2-2-2 2--------------|
E|---------1-----1-----------3-5-----|---------1-----1----------3-3----------|
     outro
G|---------------------------------------------------------------------------|
D|--------5---5-7----7/9-7-5-7-5-------5-7-----------------------------------|
A|----5-7---7--------------------7-5-7---------------------------------------|
E|5-7--------------------------------------7b-5-----------------------------|
 

Reel Big Fish — Beer

 Reel Big Fish - Beer
Everything Sucks

Tabbed By: Simon Mooney (skanking_in_unity@hotmail.com) aka anewhope

First off, I have yet to see a good tab for this song, or for any other Reel Big Fish
tabs on the net for that matter, so I decided to do this one myself!

The verses and chorus shouldnt present too much difficulty, infact it's a pretty easy
song all round.

Intro (Clean):

e |-5-5--5--5--5-|-1-1--1--1--1-|-0-0--0--0--0-|-3-3--3--3--3-|
b |-5-5--5--5--5-|-1-1--1--1--1-|-1-1--1--1--1-|-3-3--3--3--3-|
g |-5-5--5--5--5-|-2-2--2--2--2-|-0-0--0--0--0-|-4-4--4--4--4-|
d |-7-7--7--7--7-|-3-3--3--3--3-|-2-2--2--2--2-|-5-5--5--5--5-|
a |--------------|--------------|--------------|--------------|
E |--------------|--------------|--------------|--------------|

First Solo (Distorted):

e |-------------------------------10---12---12---10---------10--|
b |-10---10---10---10---/10---13----------------------13--------|
g |-------------------------------------------------------------|
d |-------------------------------------------------------------| 
a |-------------------------------------------------------------|  
E |-------------------------------------------------------------|

e |--------------------------|---------------------|----------------------|
b |-10p8---------------------|---------------------|----------------------|
g |------9-7--5--7--5-----5--|-(5)--------5-7-b(9)-|-(9)----7p5--7-(7)----|
d |--------------------7-----|--------5-7----------|------------------7-5-|
a |--------------------------|------7--------------|----------------------|
E |--------------------------|---------------------|----------------------|

Verse (Clean with ska strumming):

e |-5-5--5--5--5-|-1-1--1--1--1-|-0-0--0--0--0-|-3-3--3--3--3-|
b |-5-5--5--5--5-|-1-1--1--1--1-|-1-1--1--1--1-|-3-3--3--3--3-|
g |-5-5--5--5--5-|-2-2--2--2--2-|-0-0--0--0--0-|-4-4--4--4--4-|
d |-7-7--7--7--7-|-3-3--3--3--3-|-2-2--2--2--2-|-5-5--5--5--5-|
a |--------------|--------------|--------------|--------------|
E |--------------|--------------|--------------|--------------|

She called me late last night, to say she loved me so
Didn't matter anymore
I say she never cared and that she never will
Do it all again, I guess 'll have to wait till then

Chorus (Distorted):
Play four times

e |---------|---------|----------|---------|---------|----------|
b |---------|---------|----------|---------|---------|----------|
g |-5-5-5-5-|---------|----------|-5-5-5-5-|---------|----------|
d |-5-5-5-5-|-5-5-5-5-|--3-3-3-3-|-5-5-5-5-|-5-5-5-5-|-5-5-5-5--|
a |-3-3-3-3-|-5-5-5-5-|--3-3-3-3-|-3-3-3-3-|-5-5-5-5-|-5-5-5-5--|
E |---------|-3-3-3-3-|--1-1-1-1-|---------|-3-3-3-3-|-3-3-3-3--|

Solo:

e |-------------------------------10---12---12---10---------10--|
b |-10---10---10---10---/10---13----------------------13--------|
g |-------------------------------------------------------------|
d |-------------------------------------------------------------| 
a |-------------------------------------------------------------|  
E |-------------------------------------------------------------|

e |--------------------------|---------------------|----------------------|
b |-10p8---------------------|---------------------|----------------------|
g |------9-7--5--7--5-----5--|-(5)--------5-7-b(9)-|-(9)----7p5--7-(7)----|
d |--------------------7-----|--------5-7----------|------------------7-5-|
a |--------------------------|------7--------------|----------------------|
E |--------------------------|---------------------|----------------------|

Verse 2


e |-5-5--5--5--5-|-1-1--1--1--1-|-0-0--0--0--0-|-3-3--3--3--3-|
b |-5-5--5--5--5-|-1-1--1--1--1-|-1-1--1--1--1-|-3-3--3--3--3-|
g |-5-5--5--5--5-|-2-2--2--2--2-|-0-0--0--0--0-|-4-4--4--4--4-|
d |-7-7--7--7--7-|-3-3--3--3--3-|-2-2--2--2--2-|-5-5--5--5--5-|
a |--------------|--------------|--------------|--------------|
E |--------------|--------------|--------------|--------------|

She called me late last night to say she loved me, so..
But I guess she changed her mind
Well, I should have known it wouldn't be alright
But I can't live without her, so I won't even try..

Chorus (Distorted):
Play four times

e |---------|---------|----------|---------|---------|----------|
b |---------|---------|----------|---------|---------|----------|
g |-5-5-5-5-|---------|----------|-5-5-5-5-|---------|----------|
d |-5-5-5-5-|-5-5-5-5-|--3-3-3-3-|-5-5-5-5-|-5-5-5-5-|-5-5-5-5--|
a |-3-3-3-3-|-5-5-5-5-|--3-3-3-3-|-3-3-3-3-|-5-5-5-5-|-5-5-5-5--|
E |---------|-3-3-3-3-|--1-1-1-1-|---------|-3-3-3-3-|-3-3-3-3--|

Solo:

e |----------------------------------------------------------------------|
b |-/10----10----10p8---8------------------------------------------------|
g |-------------------9-----9-8--7--5----------5-7b(8)--r(7)-5-----------|
d |------------------------------------7--(7)------------------7--(7)----|
a |----------------------------------------------------------------------|
E |----------------------------------------------------------------------|

e |--------------------------------------------|
b |--------------------------------------------|
g |-----------/9--9--7-5-----------------------|
d |-------7---------------7--(7)--5/7--7--7--7-|
a |--------------------------------------------|
E |--5--5-------------------------3/5--5--5--5-|

e |--------------------------17-17-17-17-17-20-20-20-20-20-22-22-22-22-22-|
b |--------------------------17-17-17-17-17-20-20-20-20-20-22-22-22-22-22-|
g |-19b(21)--19-17--------------------------------------------------------|
d |----------------19--(19)-----------------------------------------------|
a |-----------------------------------------------------------------------|
E |-----------------------------------------------------------------------|

Bridge (Clean):
Half Time Feel

e |--5--5--1--1--0----0----5--5--1--1-|
b |--5--5--1--1--1----1----5--5--1--1-|
g |--5--5--2--2--0----0----5--5--2--2-|
d |-----------------------------------|
a |-----------------------------------|
E |-----------------------------------|



Lead Guitar:

e |-----------------------|
b |-----------------------|
g |-7b--(7.5)--7p5--------|
d |-7b--(7.5)-------7----|
a |-----------------------|
E |-----------------------|

Bridge Cont (Clean):
Play 3 times

e |-0----0---5--5--1--1---0----0----3-X---3-X--|
b |-1----1---5--5--1--1---1----1----3-X---3-X--|
g |-0----0---5--5--2--2---0----0----4-X---3-X--|
d |--------------------------------------------|
a |--------------------------------------------|
E |--------------------------------------------|

Lead Cont:

e |----------------|
b |----------------|
g |---------5-7-5--|
d |-----5-7--------|
a |-5-7------------|
E |----------------|

maybe some day, I'll think of what to say
maybe next time I'll remember what to do,
she looks like heaven, maybe this is hell,
said she'd do it all again, she'd promise not to tell

Double time feel...

e |-5--5--1--1-------------------------|
b |-5--5--1--1-------------------------|
g |-5--5--2--2-5-5-5-5-----------------|
d |------------5-5-5-5-5-5-5-5-5-5-5-5-|
a |------------3-3-3-3-5-5-5-5-5-5-5-5-|
E |--------------------3-3-3-3-3-3-3-3-|

If I get drunk well, I'll pass out on the floor now baby
you won't bother me no more (and she said)
It's okay boy cause you know we'll be good friends and I say,
I think I'll have myself a beer.

Outtro

e |------------------------------------|
b |------------------------------------|
g |-------------------5-5-5-5----------|
d |-7-7-7-7--3-3-3-3--5-5-5-5--5-5-5-5-|
a |-7-7-7-7--3-3-3-3--3-3-3-3--5-5-5-5-|
E |-5-5-5-5--1-1-1-1-----------3-3-3-3-|

Outro Solo


e |-------------------------------10---12---12---10---------10--|
b |-10---10---10---10---/10---13----------------------13--------|
g |-------------------------------------------------------------|
d |-------------------------------------------------------------| 
a |-------------------------------------------------------------|  
E |-------------------------------------------------------------|

e |--------------------------|---------------------|----------------------|
b |-10p8---------------------|---------------------|----------------------|
g |------9-7--5--7--5-----5--|-(5)--------5-7-b(9)-|-(9)----7p5--7-(7)----|
d |--------------------7-----|--------5-7----------|------------------7-5-|
a |--------------------------|------7--------------|----------------------|
E |--------------------------|---------------------|----------------------|

e |------------------------------------------------------------------------|
b |------------------------------------------------------------------------|
g |-14-14--14--14--14--10-10--10--10--10--5-5--5--5--5--12-12--12--12--12-*|
d |--x--x---x---x---x---x--x---x---x---x--x-x--x--x--x---x--x---x---x---x-*|
a |-12-12--12--12--12---8--8---8---8---8--3-3--3--3--3--10-10--10--10--10--|
E |------------------------------------------------------------------------|

End on:

e |-5-|
b |-5-|
g |-5-|
d |-7-|
a |---|
E |---|

OK, finally that's it! Sorry for it being very long winded, but if you want to do it, do it right. Isn't that what they say?

Any questions or comments to skanking_in_unity@hotmail.com

Thank you.. 
Аккорд E

Reel Big Fish — Beer

 Yeah this is my first tab is what I got out of the song,
it may be right it may be wrong but it sounds good so here ya go.

Intro

(clean) 2X
E---5-55-55---1-11-11---3-33-33---3-33-55---------------------------------------
B---5-55-55---1-11-11---3-33-33---3-33-55---------------------------------------
G---5-55-55---2-22-22---5-55-55---3-33-55---------------------------------------
D---7-77-77---3-33-33---5-55-55---5-55-55---------------------------------------
A---7-77-77---3-33-33---3-33-33---5-55-55---------------------------------------
E---5-55-55---1-11-11---3-33-33---3-33-33---------------------------------------

1st Solo
(distortion)
E-----------------10-12-12-10----10----------------------------------------
B-10-10-10-/10--13------------13-----10p8----------------------------------
G-----------------------------------------9-7-5-7-5-5----5-7-9^^-7-5-7-5-9-
D--------------------------------------------------7--5-7------------------
A----------------------------------------------------7---------------------
E--------------------------------------------------------------------------

Verse  4X
(clean)
E---5-55-55---1-11-11---3-33-33---3-33-33---------------------------------------
B---5-55-55---1-11-11---3-33-33---3-33-33---------------------------------------
G---5-55-55---2-22-22---5-55-55---4-44-44---------------------------------------
D---7-77-77---3-33-33---5-55-55---5-55-55---------------------------------------
A---7-77-77---3-33-33---3-33-33---5-55-55---------------------------------------
E---5-55-55---1-11-11---3-33-33---3-33-33---------------------------------------


Chorus 4X

E-----------------------------------------------------------------------
B-----------------------------------------------------------------------
G----------5555---------------------------------------------------------
D---3333---5555--5555--5555---------------------------------------------
A---3333---3333--5555--5555---------------------------------------------
E---1111---------3555--3333---------------------------------------------

1st Solo

Verse

Chorus

2nd Solo

E----------------------------------------------------------------------
B---10-10-10---8----------^--------------------------------------------
G------------9---9-8-7-5--7-5--------------5h7-7-9-7-5h7---------------
D-------------------------7-------7------7---------------7-555-7-555-7-
A----------------------------------------------------------xxx-x-xxx-x-
E-----------------------------5-5---5-5--------------------333-5-333-5-
    
E----^-------17-17-17-20-20-20-21-21-21--------------------------
B---15-13----17-17-17-20-20-20-21-21-21--------------------------
G---------14-----------------------------------------------------
D----------------------------------------------------------------
A----------------------------------------------------------------
E----------------------------------------------------------------

Verse X6
E-5-55-55--1-11-11--3-33-33------------------------------------
B-5-55-55--1-11-11--3-33-33------------------------------------
G-5-55-55--1-11-11--3-33-33------------------------------------
D-7-77-77--3-33-33--5-55-55------------------------------------
A--------------------------------------------------------------
E--------------------------------------------------------------

Fill Ins
E---------
B---^-----
G---7-5---
D-------7-
A---------
E---------

E---------------
B---------------
G-----------5-7-
D-------5-7-----
A---5-7---------
E---------------

Chorus

1st Solo

Outro

E----------------------------------------------------------------
B----------------------------------------------------------------
G-----------555--------------------------------------------------
D---777-333-xxx-555----------------------------------------------
A---xxx-xxx-333-xxx----------------------------------------------
E---555-111-----333----------------------------------------------

End on

E-----
B-----
G-----
D---7-
A---7-
E---5- 
Аккорд E---------Аккорд G---7-5---Аккорд D-------7-Аккорд A---------Аккорд E-----Аккорд B-----Аккорд G-----Аккорд D---7-Аккорд A---7-