Портал для гитаристов
gtars.ru

Reel Big Fish — Down In Flames

 ------------------------------------------------------------
		REEL BIG FISH - DOWN IN FLAMES
------------------------------------------------------------

BY: DEREK

INTRO:
e |---7-5-7-5-----------5-------------5-----------|
B |-----------8-7-8-7-8---7-8-7-8-7-8---5---------|
G |-7-------------------------------------7-------|
D |-----------------------------------------------|
A |-----------------------------------------------|
E |-----------------------------------------------|

e |-----------------------------------------------|
B |-----------------------------------------------|
G |---------4-2-4-2-----------2-------------2-----|
D |-7-5-4-----------5-4-5-4-5---4-5-4-5-4-5---2---|
A |-------5-------------------------------------5-|
E |-----------------------------------------------|

CHORUS:
e |-----------------------------------------------|
B |-----------------------------------------------|
G |-7-7-7-7-4-4-4-4-5-5-5-5-----------------------|
D |-7-7-7-7-4-4-4-4-5-5-5-5-5-5-5-5---------------|
A |-5-5-5-5-2-2-2-2-3-3-3-3-5-5-5-5---------------|
E |-------------------------3-3-3-3---------------|

THIS IS JUST THE INTRO AND THE CHORUS. MAYBE I'LL FIGURE OUT THE REST OF THE SONG SOME 
OTHER TIME. AARON BARRETT IS THE COOLEST. 
Аккорд BIGАккорд BАккорд GАккорд DАккорд AАккорд E