Портал для гитаристов
gtars.ru

Reel Big Fish — Good Thing

 Reel Big Fish - Good Thing
Tabbed By: Bert
EMail: loser_guitarist@hotmail.com
album: Cheer Up!
                                         p.m.
                                        ------
intro/verse: C     G         |Bb    F   F F F |
             1 + 2 + 3 + 4 + |1 + 2 + 3 + 4 + | repeat a bunch ||
           I never felt too good...

chorus: C   C D   D D D |F   F G   G G G |
        1 + 2 + 3 + 4 + |1 + 2 + 3 + 4 + | repeat a bunch ||
            You know we got a...
        C     G         |Bb    F         |
        1 + 2 + 3 + 4 + |1 + 2 + 3 + 4 + | repeat a bunch ||
     Are these the good...

bridge: A               |F               |G               |A     G
        1 + 2 + 3 + 4 + |1 + 2 + 3 + 4 + |1 + 2 + 3 + 4 + |1 + 2 + 3 + 4 + |
                                   Heartbreak              I can live without

During the guitar solo (which I can't figure out) the rhythm is the same as the verses)


tabbed out 10/1/02 by =bert= 
Аккорд CАккорд GАккорд BbАккорд FАккорд DАккорд A

Reel Big Fish — Good Thing

 RBF! w00t! Great song, fun song. Have fun.

Verse:
G--------------------------------
D--------------------------------
A--3--3---5-5-5----------2-3-5---
E---------------1--1---3---------

G--------------------------------
D----------------3--3---3/5-3-2-0
A--3--3--5-5-5-------------------
E--------------------------------

Chorus:
G---------------------------------------
D---------3-3---------------3-3-5-3-2---
A-3-3-5-5--------2-3-5--3-3-5-5--------5
E-------------3-------------------------

Bridge:
G-------------------
D--2-3-5-------33333
A3------------------
E-------3-11111-----


verse x7
bridge x1
chorus x2
verse x7
bridge x1
chorus x2
verse x7
bridge x1
chorus x6

drunk 

Reel Big Fish — Good Thing

 Obviously this is my first tab, so take it easy. All I could rigure out was the intro.
By the way, this song is amazing! -jon

Good Thing

e -------------------------------
B -------------------------------
G --5--5-----3---3---------------                       
D --5--5-5---3---3-3--3-3-3------
A --3--3-5---1---1-3--3-3-3------
E -------3---------1--1-1-1------
                      palm mute


I never felt too good but in this world who would
I was always thinkin’ somethin’ wasn't right 
But then you came along and helped me sing a song and 
now I feel ok I hope it can stay- this way 

You know we've got a good thing goin' and I don't wanna see it end
You know we've got a good thing goin' and I don't wanna see it end 
Are these the good days that I've heard so much about-
there goes the heartbreak that I can live without 
I've been so frustrated, bitter, mean, and jaded
I've taken for granted all the things I've got
But now that you are here this anger disappears
and I feel happy too this is sappy but it's true 

You know we've got a good thing goin' and I don't wanna see it end
You know we've got a good thing goin' and I don't wanna see it end 
Are these the good days that I've heard so much about there goes the heartbreak 
that I can live without 
Аккорд BАккорд GАккорд DАккорд AАккорд E