Портал для гитаристов
gtars.ru

Reel Big Fish — I Want Your Girlfriend To be My Girlfriend Too

 Intro:		
[e:---------------------------------------------------------------
B:---------------------------------------------------------------
G:-----4-7-----4--5-5-4--4---------------------------------------
D:-5-5-----5-5---------7---7-------------------------------------
A:---------------------------------------------------------------
E:---------------------------------------------------------------

e:-10-10--10--10--10--8--8-8-8-----------------------------------
B:-10-10--10--10--10--8--8-8-8-----------------------------------
G:-11-11--11--11--11--9--9-9-9-----------------------------------
D:---------------------------------------------------------------
A:---------------------------------------------------------------
E:---------------------------------------------------------------

Verse:		
e:-3-3--3--3--3--0-0/2-2-----------------------------------------
B:-3-3--3--3--3--1-1/3-3-----------------------------------------
G:-4-4--4--4--4--0-0/2-2-----------------------------------------
D:---------------------------------------------------------------
A:---------------------------------------------------------------
E:---------------------------------------------------------------

Prechorus:	
e:-5-5-5-5-5-5-5-5--8-8-8-8--10----------------------------------
B:-5-5-5-5-5-5-5-5--8-8-8-8--10----------------------------------
G:-5-5-5-5-5-5-5-5--9-9-9-9--11----------------------------------
D:---------------------------------------------------------------
A:---------------------------------------------------------------
E:---------------------------------------------------------------

Chorus:		
e:---------------------------------------------------------------
B:---------------------------------------------------------------
G:----5--7-------------------------------------------------------
D:-5--5--7-------------------------------------------------------
A:-5--3--5-------------------------------------------------------
E:-3-------------------------------------------------------------

Solo:		
e:---------------------------------------------------------------
B:-------10------------------------------------------15-15-13-12-
G:-----12--12----------------------------------------------------
D:---12------12-12-10-9--------9-12-9-9-10-10-9-12-9-------------
A:-10------------------12-10-10----------------------------------
E:---------------------------------------------------------------

e:---------------------------------------------------------------
B:---------------------------------------------------------------
G:-12------------------------------------------------------------
D:---12-10-9-9h10h9----------------------------------------------
A:-----------------12--10-10-9-7---------------------------------
E:------------------------------10-10-8-7-8-10-8-7-3-------------]

Riff A("...want your girlfriend, to be be be be my...")
[e:-x-3-3-x-x-3-x-0-0-x-x-2---------------------------------------
B:-x-3-3-x-x-3-x-1-1-x-x-3-------------------------------------
G:-x-4-4-x-x-4-x-0-0-x-x-2--------------------------------------
D:---------------------------------------------------------------
A:---------------------------------------------------------------
E:---------------------------------------------------------------]

Riff B("...she's so cute I don't know...")
[e:---------------------------------------------------------------
B:---------------------------------------------------------------
G:-----------------5-5-5-5-7-7-7-7-------------------------------
D:-5-5-5-5-2-2-2-2-5-5-5-5-7-7-7-7-------------------------------
A:-5-5-5-5-2-2-2-2-3-3-3-3-5-5-5-5-------------------------------
E:-3-3-3-3-0-0-0-0-----------------------------------------------

Prechorus 2:	
e:---------------------------------------------------------------
B:---------------------------------------------------------------
G:------------------5-5-5-5--7-----------------------------------
D:-7-7-7-7-7-7-7-7--5-5-5-5--7-----------------------------------
A:-7-7-7-7-7-7-7-7--3-3-3-3--5-----------------------------------
E:-5-5-5-5-5-5-5-5-----------------------------------------------]

Song Structure:
Intro, verse, prechorus, chorus, verse, prechorus, chorus, solo,
riff A, riff B, chorus, verse, end on G    
Аккорд G