Портал для гитаристов
gtars.ru

Reel Big Fish — Kiss Me Deadly

 #-------------------------------PLEASE NOTE------------------------------------#
#This file is the 
own work and represents their interpretation of the #
#song. You may only use this file for private study, 
or research. #
#------------------------------------------------------------------------------#         
#Title         : Kiss Me Deadly                                                #
#Artist        : Reel Big Fish     
                                           #
#Date          : Monday, October 8, 2001                                       #
#Author        : T-$                                                           #
#Email         : SkaMoney34@mac.com                                            #
#------------------------------------------------------------------------------#

I  went to a party last Saturday night I didn't get laid, I 
got in a fight
E |6-6---6---6---6---|---6---6---6---6---|4-4---4---4---4---|---4---4---4---4---|
B |8-8---8---8---8---|---8---8---8---8---|4-4---4---4---4---|---4---4---4---4---|
G |8-8---8---8---8---|---8---8---8---8---|5-5---5---5---5---|---5---5---5---5---|
D |8-----------------|-------------------|6-----------------|-------------------|
A |6-----------------|-------------------|------------------|-------------------|
E |------------------|-------------------|------------------|-------------------|
But I know what I
			Like
E |---6---6---6---6---|---4---4---6---6---|
B |---8---8---8---8---|---4---4---6---6---|
G |---8---8---8---8---|---5---5---7---7---|
D |-------------------|-------------------|
A |-------------------|-------------------|
E |-------------------|-------------------|
			Kiss me once...
E |----------------|----------------|
B 
|8---8---8---8---|----------------|
D |8---8---8---8---|6---6---8---8---|
A |6---6---6---6---|6---6---8---8---|
E |----------------|4---4---6---6---|
			Come'on  pretty  baby  kiss  me   deadly
E |----------------|----------------|----------------|
B |----------------|----------------|----------------|
G |8---8---8---8---|8---8---8---8---|----------------|
D |8---8---8---8---|8---8---8---8---|6---6---8---8---|
A |6---6---6---6---|6---6---6---6---|6---6---8---8---|
E |----------------|----------------|4---4---6---6---|
#End of file. 
Аккорд EАккорд BАккорд GАккорд DАккорд A