Портал для гитаристов
gtars.ru

Reel Big Fish — Nothin

 Intro: C1 E

C                 E F    A G
everytime i try so hard i get nothin' (nothin')
C             E F    A G
they say try and you won't fail i get nothin' (nothin')
C             E F    A G
i did all that i could i got nothin' (nothin')
C       E F    A G
i tried so hard for nothin' (nothin')
A  C F G          A  C F G
i never wanted it that way
               A   C F G
guess there was nothin' i could say
               A   C F G
i don't know what i want but i know i don't want this
F        G         F    G
i give up i give in i know i'm never gonna win
C              E F    A G
everytime i try so hard i get nothin' (nothin')
C             E F    A G
they say try and you won't fail i get nothin' (nothin')
C             E F    A G
i did all that i could i got nothin' (nothin')
C       E F    A G
i tried so hard for nothin' (nothin')
A   C F G              A   C F G
       i know it's really not your fault
       A   C F G
i'm gonna blame you anyway
            A         C F G
you say you're sorry but i know it won't Do no good
F        G         F   G
i give up i give in i know i'm never gonna win
C              E F    A G
everytime i try so hard i get nothin' (nothin')
C             E F    A G
they say try and you won't fail i get nothin' (nothin')
C             E F    A G
i did all that i could i got nothin' (nothin')
C       E F    A G
i tried so hard for nothin' (nothin')

Solo:		
[e:--------------------------------------------
b:----------1---------------------------------
g:--3-3-2-3---3-2-1s2-0----------0------------
d:-----------------------3-3-2-3---3-2--------
a:-------------------------------------3s5----
e:-----------------------------------------3--

e:---------------------------------------------
b:-----------1---------------------------------
g:---3-3-2-3---3-2-1s2-0----------0------------
d:------------------------3-3-2-3---3-2--------
a:--------------------------------------3s5-3--
e:---------------------------------------------

e:---------------------------------------------
b:---------------------------------------------
g:---3p2---3p2---3s5-5-------------------------
d:-------3-----3-------3-3-5-------------------
a:---------------------------------------------
e:---------------------------------------------]

Post-solo: C F C G (one measure each chord)
           F G (two downstrokes on F and then one on G)

C
i don't fuckin' care
F
i don't fuckin' care
C         G   harmonic fill on G (12th fret)
i don't fuckin' care anymore
C
i don't fuckin' care
F
i don't fuckin' care
C         G
i don't fuckin' care anymore
C
i don't fuckin' care
F
i don't fuckin' care
C         G
i don't fuckin' care anymore
C
i don't fuckin' care
F
i don't fuckin' care
C         G
i don't fuckin' care anymore
C
i don't fuckin' care
F
i don't fuckin' care
C         G
i don't fuckin' care anymore
C
i don't fuckin' care
F
i don't fuckin' care
C         G
i don't fuckin' care anymore

Outro: C E -> F
       A -> G C    
Аккорд C1Аккорд EАккорд CАккорд FАккорд AАккорд G