Портал для гитаристов
gtars.ru

Reel Big Fish — Sell Out

 SELL OUT 
reel big fish
tabbed by Daniel Garrett
 
  INTRO
   riff1                                    end of riff1
  ------------------------------------------------------
  ---------REST---------REST---------REST---------------
  -44-3-44------44-3-44------44-3-44------44-3-44--4/14-
  ------------------------------------------------------
   riff2                                                end of riff2
  -------------------------------------------------------------------
  -----------------------------5-6-8---------8-6-5-----------1-------
  -------------------4-4-444-6---------------------6-4-4-444---4-3-1-
  -4-4-444-6-666-666-----------------4-4-444-------------------------
   riff3                end of riff3
  -----------------------------------  listen to cd for the timing and rythm
  ---------------------------1-------
  -------------------4-4-444---4-3-1-
  -4-4-444-6-666-666-----------------
   riff4                 end of riff4
  ------------------------------------
  ----------------------3-----1-------
  ----3--------4-----4-----4----4-3-1-
  -4-----4--6-----6-------------------
  
   riff5                                                        end of riff5
  ------------------------------------------------------------------8-----8--
  ----------------------3-----1------------------------------------8-8---8-8-
  ----3--------4-----4-----4----4-3-1-----3--------4-----3---4---6-----6-----
  -4-----4--6-----6--------------------4-----4--6-----6----------------------
   riff6                     end of riff6   
  ----------------------------------------
  ----REST----REST----REST----1-1---0-1-1-
  -------------------------4------4-------
  -4-------4-------4----------------------
  SELL OUT PART 
   riff7 
  -------------
  -------------
  -----34-4-6-
  -4-----------
   BRIDGE
  ------------------------------------------------------------------
  ---------------------------------------------------------44-3-----
  -3-3-333-4-4-444-----------------3-3-333-4-4-444---3-4-6------6-4-
  -----------------4-4-444-4-4-444-----------------4----------------
                                                            end BRIDGE
  ------------------------------------------------------------8-----8--
  -----------------------------------------------------------8-8---8-8-
  ---------4-4-444-------------------------3-3-333-4-4-444-6-----6-----
  -6-6-666---------4-4-444-4-4-444-6-6-666-----------------------------
   OUTRO
  -----------------------------------------------------------------------
  ------------------------------5-6-8----------------------------1-------
  -------------------44444444-6-------------------------44444444---4-3-1-
  -44444444-66666666------------------44444444-66666666------------------
     SONG LAYOUT
    riff1  x1
    riff2  x2
    riff4  x2
    riff3  x1
    riff5  x1
    riff6  x1
	7  x4
	2  x2
	4  x2
	5  x1
	6  x1
	7  x4
	1  x1
   BRIDGE  x1
        6  x1
        7  x4
        2  x2
    OUTRO  x2 

Reel Big Fish — Sell Out

 Band- Reel Big Fish
Song- Sell out
Tabbed by Graham Thomson
E-mail- savemeorshootme@hotmail.com

This is actually quite a difficult song to tab. All i have is the intro.


D|
A|6-6--5-5--6
E|4-4--3-3--4


Im sorry but thats all i have. 

Reel Big Fish — Sell Out

 Check rythyms on some parts, like the part right after the verse.

Intro
G|------------------------------------------------------
D|---------REST---------REST---------REST---------------
A|-44-3-44------44-3-44------44-3-44------44-3-44--4/14-
E|------------------------------------------------------

Intro/Pre Verse
G|--------------------------------------------------------------------
D|-----------------------------5-6-8---------8-6-5--------------------
A|-------------------4-4-444-6---------------------6-4-4-444--6-4-3-1- x2
E|-4-4-444-6-666-666-----------------4-4-444--------------------------

Verse
G|------------------------------------
D|----------------------3-------------
A|----3--------4-----4-----4--6-4-3-1- x2
E|-4-----4--6-----6-------------------
 
G|------------------------------------  
D|------------------------------------
A|-------------------4-4-444--6-4-3-1-
E|-4-4-444-6-666-666------------------

G|------------------------------------------------------------------8-----8--
D|----------------------3-----1------------------------------------8-8---8-8-
A|----3--------4-----4-----4----4-3-1-----3--------4-----3---4---6-----6-----
E|-4-----4--6-----6--------------------4-----4--6-----6----------------------

Chorus?
G|-------------------------------------------
D|-------------------------------------------
A|-444-----444-----444-----4444----6-6-4-5-6-
E|-----4-------4-------4---------------------

G|-------------
D|-------------
A|-----34-4-6- x4
E|-4-----------

Intro/Pre Verse
G|--------------------------------------------------------------------
D|-----------------------------5-6-8---------8-6-5--------------------
A|-------------------4-4-444-6---------------------6-4-4-444--6-4-3-1- x2
E|-4-4-444-6-666-666-----------------4-4-444--------------------------

Verse
G|------------------------------------
D|----------------------3-------------
A|----3--------4-----4-----4--6-4-3-1- x2
E|-4-----4--6-----6-------------------
 
G|------------------------------------  
D|------------------------------------
A|-------------------4-4-444--6-4-3-1-
E|-4-4-444-6-666-666------------------

G|------------------------------------------------------------------8-----8--
D|----------------------3------------------------------------------8-8---8-8-
A|----3--------4-----4-----4--6-4-3-1-----3--------4-----3---4---6-----6-----
E|-4-----4--6-----6--------------------4-----4--6-----6----------------------

Chorus
G|-------------------------------------------
D|-------------------------------------------
A|-444-----444-----444-----4444----6-6-4-5-6-
E|-----4-------4-------4---------------------

G|-------------
D|-------------
A|-----34-4-6- x4
E|-4-----------

G|------------------------------------------------------
D|---------REST---------REST---------REST---------------
A|-44-3-44------44-3-44------44-3-44------44-3-44--4/14-
E|------------------------------------------------------

Bridge
G|------------------------------------------------------------------
D|---------------------------------------------------------44-3-----
A|-3-3-333-4-4-444-----------------3-3-333-4-4-444---3-4-6------6-4-
E|-----------------4-4-444-4-4-444-----------------4----------------

G|------------------------------------------------------------8-----8--
D|-----------------------------------------------------------8-8---8-8-
A|---------4-4-444-------------------------3-3-333-4-4-444-6-----6-----
E|-6-6-666---------4-4-444-4-4-444-6-6-666-----------------------------
 
Chorus
G|-------------------------------------------
D|-------------------------------------------
A|-444-----444-----444-----4444----6-6-4-5-6-
E|-----4-------4-------4---------------------

G|-------------
D|-------------
A|-----34-4-6- x4
E|-4-----------

Ending
G|--------------------------------------------------------------------
D|-----------------------------5-6-8---------8-6-5--------------------
A|-------------------4-4-444-6---------------------6-4-4-444--6-4-3-1- x2
E|-4-4-444-6-666-666-----------------4-4-444--------------------------

G|-----------------------------------------------------------------------
A|-----------------------------------------------------------------------
D|-------------------44444444-6-4-3-1-------------------44444444-6-4-3-1-
E|-44444444-66666666------------------44444444-66666666------------------

Check number of times you play ending part.