Портал для гитаристов
gtars.ru

Reel Big Fish — Somebody Loved Me

 Reel Big Fish - Somebody Loved Me
Tabbed By: Bert
EMail: loser_guitarist@hotmail.com
album: Cheer Up!

ok, there's a few clean guitar parts going on at the same time for 
the intro.


guitar #1:

E:-----------------|----------------|----------------|----------------|
B:-----------------|----------------|----------------|----------------|
G:---------5-4-2---|--------5-4-2---|--------5-4-2---|------5---5-5---|
D:-5-------------4-|--------------3-|--------------2-|----2-----------|
A:-----------------|----------------|----------------|----------------|
E:-----------------|----------------|----------------|----------------|
   1 + 2 + 3 + 4 + |1 + 2 + 3 + 4 + |1 + 2 + 3 + 4 + |1 + 2 + 3 + 4 + |

after the first guitar does that, it repeats while the second guitar 
does this:

E:---------------10|--------------9-|--------------7-|--7-7-5---5-5---|
B:---------10------|--------10------|--------10------|----------------|
G:-9-----------9---|------------9---|------------9---|----------------|
D:-----------------|----------------|----------------|----------------|
A:-----------------|----------------|----------------|----------------|
E:-----------------|----------------|----------------|----------------|
   1 + 2 + 3 + 4 + |1 + 2 + 3 + 4 + |1 + 2 + 3 + 4 + |1 + 2 + 3 + 4 + |

THEN, the first part repeats again while the second part repeats.
There's a third part that i didn't figure out, but it's probably in 
the same area as the second part.

Then the song fades in....

chords:
    A   C#  D   E   B 
G:------6---7---9------
D:--7---6---7---9---9--
A:--7---4---5---7---9--
E:--5---------------7--
    
rock intro:
   A     C# D     C# A  |   C#    C# D  D  C# D  |
1  +  2  +  3  +  4  +  |1  +  2  +  3  +  4  +  | repeat

verse: palm muted
E  E  E  E  E  E  E  E  |C# C# C# C# D  D  D  D  |
1  +  2  +  3  +  4  +  |1  +  2  +  3  +  4  +  | repeat

pre-chorus:
   C# C# D  D  D  D
1  +  2  +  3  +  4  +  | repeat

chorus: let the chord ring for whole bar
A               |B               |C#              |D               |
1 + 2 + 3 + 4 + |1 + 2 + 3 + 4 + |1 + 2 + 3 + 4 + |1 + 2 + 3 + 4 + |repeat

during the guitar solo, the rhythm plays the rock intro part

tabbed out 10/7/02 by =bert=
===========Reel Big Fish - Somebody Loved Me
Tabbed By: Bert
EMail: loser_guitarist@hotmail.com
album: Cheer Up!

this is a correction to my previous tab of this song.  the intro
guitar part where 2 clean guitars are playing at the same time, the 
second part doesn't repeat.  instead it plays what i already tabbed, 
then does this:

e:-9--10-9--7-----5--------|     |9--------9--9--7--------|
b:-------------------------|play |------------------------|
g:-------------------------|three|------------------------|
d:-------------------------|times|------------------------|
a:-------------------------|     |------------------------|
e:-------------------------|     |------------------------|
   1  +  2  +  3  +  4  +  |     |1  +  2  +  3  +  4  +  |

there.  much better.

fixed 10/9/02 by =bert= 
Аккорд AАккорд C#Аккорд DАккорд EАккорд B

Reel Big Fish — Somebody Loved Me

 ----------------------------------------------------------------------------
			     SOMEBODY LOVED ME - Reel Big Fish
----------------------------------------------------------------------------
Tabbed by: Jesse Benedick
Email: JBMetal311@Yahoo.com

Tuning: Standard

e|---------------------------------------|
B|---------------------------------------|
G|-----7-6-4----7-6-4----7-6-4----6/7----|
D|--7--------5--------4--------3---------|
A|---------------------------------------|
E|---------------------------------------|
Opening Notes Guitar 1
e|-----------12-------10---------------------|-9-10-9-7----|-12----9-------|
B|-----10-------10-------10----/12-12-12-10~-|----------10-|----10---10----|
G|--9------9--------9--------9---------------|-------------|---------------|
D|-------------------------------------------|-------------|---------------|
A|-------------------------------------------|-------------|---------------|
E|-------------------------------------------|-------------|---------------|
Opening Notes Guitar 2                        Repeat 3x
e|---------------------------------|
B|---------------------------------|
G|---------------------6-6-77-6-7--|
D|--7~~~--2--6-7-6--2--6-6-77-6-7--|
A|--------2--6-7-6--2--4-4-55-4-5--|
E|--------0--4-5-4--0--------------|
 Main Chords                          
e|-------------------------------------------------------------------------|
B|-------------------------------------------------------------------------|
G|-----9--------6----7-----9--------6----7-----9--------6----7-------------|
D|-----9--------6----7-----9--------6----7-----9--------6----7-------------|
A|-----7--------4----5-----7--------4----5-----7--------4----5-------------|
E|-------------------------------------------------------------------------|
Verse Guitar 1
e|--------------------------------------12---------------------------------|
B|--------9-------------------9------12-----------9------------------------|
G|----------9--------999~-------9-------------------9--------999~----------|
D|--------------9-11------------------------------------9-11---------------|
A|-------------------------------------------------------------------------|
E|-------------------------------------------------------------------------|
Verse Guitar 2
e|-----------------------|----------------------|
B|-----------------------|----------------------|
G|--6-7----6-7----6-7----|------------6----7----|
D|--6-7----6-7----6-7----|--7----9----6----7----|
A|--4-5----4-5----4-5----|--7----9----4----5----|
E|-----------------------|--5----7--------------|
End Verse Chords Guitar 1      Chorus Chords
e|-------------------------15p12-------15p12-------15p12-------15p12-------|
B|----------------------12-------15p12-------15p12-------15p12-------15p12-|
G|--14b15r14--12h14p12~----------------------------------------------------|
D|-------------------------------------------------------------------------|
A|-------------------------------------------------------------------------|
E|-------------------------------------------------------------------------|
Solo
e|---------------------------------------------------------------------|
B|-17b18-17~-----------------------------------------------------------|
G|----------------------------------------------12-14-14b15-14--12~----|
D|--------------77777b8888r77777-5h7p5~---12-14------------------------|
A|---------------------------------------------------------------------|
E|---------------------------------------------------------------------|
Solo Continued  (tremolo pick)

That's it! Have fun!

| /  slide up
|   slide down
| h  hammer-on
| p  pull-off
| ~  vibrato
| +  harmonic
| x  Mute note
============================================================================