Портал для гитаристов
gtars.ru

Reel Big Fish — Take On Me

 Song: Take On Me
Artist: Reel Big Fish
Album: BASEketball Soundtrack
Tabbed by: Ryan Anderson

Tuning is normal

x - Mute String
~ - Let it ring

Intro (Hold each for 16 quarter notes, or 4 whole notes)
        
G|--------------
D|--------------
A|--------------
E|--2~-------2~-

Verse                               x 5
                        
G|-----4-2----------4--------2--------------------
D|---------4-2~-2-2---2--------4-2-5--5-5-4-4-5-2-
A|-2-2-------------------0-0----------------------
E|------------------------------------------------

Verse Variant 1                 x 1

G|-----4-2----------4------------
D|---------4-2~-2-2---2----------
A|-2-2------------------------5~-
E|------------------------2~-----

Chorus                          x 1         
                                                    x 3
G|---------------------------------------
D|-----------2-2-2-2-2--4-4-4-4-4--------
A|-0-0-0-0-0----------------------4-5--4-
E|---------------------------------------

G|------------------------------------------
D|--------------------------------2-2-2-2-2-
A|-0-0-0-0-0------------5-5-5-5-5-----------
E|-----------4-4-4-4-4----------------------

Verse       x 3

Variant 1   x 1

Chorus      x 1

Bridge      x 1
                                                                    
G|---------5------------5----------------------------
D|----------------------------------5------------5---
A|-3-3-3-3---3--3-3-3-3---3--------------------------
E|--------------------------3-3-3-3---3--3-3-3-3---3-

G|---------5------------5----------5---10---5-
D|-----------------------------5-----3--------
A|-3-3-3-3---3--3-3-3-3---3------3--------3---
E|---------------------------3----------------

G|--------------------------------------------
D|-----------------------2-2-2-2-2--2-2-2-2-2-
A|-2-2-2-2-2--2-2-2-2-2-----------------------
E|--------------------------------------------

Horn Solo (On Drum Crash)

G|------------
D|------------
A|-2--2--12/2-
E|------------

Verse       x 3 

Verse Variant 2                             x 1
                        
G|-----4-2----------4--------4---4-2-
D|---------4-2~-2-2---2--------4-----
A|-2-2-------------------0-0---------
E|-----------------------------------

Verse       x 1

Variant 1   x 1

Chorus      until the end
 

Reel Big Fish — Take On Me

 Reel Big Fish - Take On Me
Basketball Soundtrack
Stratster182 
This tab i actually stole off ... but i did not like the spacing and there wasn't
a guitar tab for it here.  This song is great, but don't take my word for it,
play it yourself.  I haven't even played it yet to see if it is right.  I am
sorry who ever made this tab but you didn't sign it.  Write me and i will edit it
and give you credit.

Intro:                                                                         

 E|-------2----------------------|
 B|----------3-------------------|
 G|-4-----------4--------4-------|
 D|-4--------------------4-------|
 A|-2--------------------2-------|
 E|------------------------------|                  
 

Trumpet: 

 E|-------------------------------------------------------|
 B|-------------------------------------------------------|
 G|-------------------1-1-4-4-22--------------------------|     
 D|--4-4-------222----------------2-----------------------|
 A|-------5-22------------------------4----5-5-5-4-5-4-5--|
 E|---------------------------------------5---------------|           


Verse:                                                                         

 E|--7-----4-----9-----10---10-----9-------|
 B|--7-----5-----10----10---10-----9-------|
 G|--8-----4-----9-----11---11----10-------|     
 D|----------------------------------------|
 A|----------------------------------------|
 E|----------------------------------------|   


Chorus:

 E|-------------------------------------------------|
 B|-------------------------------------------------|
 G|------------9------11--------7-----6-------4-----|  
 D|----7-------9------11--------7-----6-------4-----|
 A|----7-------7------9---------5-----4-------2-----|
 E|----5--------------------------------------------|

End of Chorus:

 E|------------------------------------|
 B|------------------------------------|
 G|---------------------7-------9------|
 D|----7-------7--------7-------9------|
 A|----7-------7--------5-------7------|
 E|----5-------4-----------------------|


Play Verse again, Then Chorus, then 

Bridge:                                                  Other Trumpet

 E|---4----3-----------|
 B|---5----3-----------|
 G|---6----4---4----9--|
 D|---6--------4----9--|
 A|---4--------2----7--|
 E|--------------------|

Other Trumpet:
 E|----------------------------|
 B|----------------------------|
 G|---------------------1-1-4-4|
 D|--4-4--------2-2-2----------|
 A|-------5-2-2----------------|
 E|----------------------------|


Then Play trumpet part, verse, and the chorus x2

Order:
Intro---------x1
Trumpet-------x2
Verse---------x4
Bridge--------x2
Other Trumpet-x2
Trumpet-------x1
Verse---------x1
Chorus--------x2

I am not sure of the chorus parts but if you listen to the songs then you can figure them out.

Hope you have fun cause i know i will!!
~~Get Drunk~~