Портал для гитаристов
gtars.ru

Reel Big Fish — Trendy

 trendy
reel big fish
turn the radio off

chord chart
    f f#m g  Bb b  c  d
e|--1--2--3--1--2--3--5--|
b|--1--2--3--3--4--5--7--|
g|--2--2--4--3--4--5--7--|
d|--3--4--5--3--4--5--7--|
a|--3--4--5--1--2--3--5--|
e|--1--2--3--------------|

c           Bb        g
everybody's doin' the fish
c   Bb  g
yea yea yea
c           Bb        g
everybody's doin' the fish
c   Bb  g
yea yea yea
c           Bb        g    f -> g
everybody's doin' the fish
c   Bb  g    f -> g
yea yea yea
c           Bb        g    f -> g    
everybody's doin' the fish
c   Bb  g
yea yea yea

[g c g f x4]

g               c
it's not so bad bein' trendy
g                          f
everyone who looks like me is my friend
g                      c
please don't hate me because i'm trendy
        g                  f
they're not gonna laugh at me again

[g c d x4]

g c               g   d
  everybody does it
g       c                   g   d
  and i wonder, why don't you?
g c             g   d
  everybody does it...
g c                  g  d
  maybe you should too
c                                g   d
  cause you don't wanna be left out
            [g c d x4]
you wanna be cool

g               c
it's not so bad bein' trendy
g                          f
everyone who looks like me is my friend
g                      c
please don't hate me because i'm trendy
        g                  f
they're not gonna laugh at me...
   [g c d x4]
again!

[g b c x4]

g                  b      c
everybody's makin' fun of me
g              b      c
cause they say i'm so trendy
g               b      c
cause i do what others do
             g
they'll make fun of me
             b      c    d
they'll make fun of you

but i don't wanna be left out
          [c Bb g x8]
i wanna be cool! 
Аккорд Bb

Reel Big Fish — Trendy

 Trendy 
 reel big fish
 tabbed by:another reel BIG fan
 INTRO
         ------------      -------------------------------------------------------
 guitar  ------------ REST -------------------------------------------------------
 part    ------------      -3--1-----------33--1-----------3--1-----------33--1---
 then    -35-0123----      ------3-35-0123-------3-35-0123------3-35-0123-------3-
                      
                      its not so bad being trendy part 
                      riff1
        -----------  ----------------3-----4-7-4---5-4-----------
 clean  -----------  -------3----2-5--5--5------5-----5--5-5-3-2-
 guitar ---3-20----  ---2-5--5-3---------------------------------
 part   -------3---  -3------------------------------------------
                                                    
                                                    end of riff1
                     ----------------3-----4-7-4---5-4---------- repeat
                     -------3----2-5--5--5------5-----5--3-2-0-- riff1
                     ---2-5--5-3-------------------------------- once
                     -3----------------------------------------- then rest
 
  
  labamba! part  
  riff2                                                         end of riff2
             p    p                p    p                p    p
 ------------7----7-4--------------7----7-4--------------7----7-4-----------
 ----------------5---------------------5---------------------5-------------- REST
 ----3-----5---------------3-----5---------------3-----5---------------3----
 -3-----1---------------3-----1---------------3-----1---------------3-----1-    
 
  EVERYBODY DOES IT PART
                                     
 -----------------------------------------------------   repeat  -----------2-3-4-5-3-2------
 ------5-3-0----------------------5-3-0-------------5-  4 times  ---2-3-4-5-------------5----  
 ----5-------5--3-2-3-5-4-3-----5-------5--3-2-3-5---- then play -3-----------------------5-5
 -3--------------------------3------------------------   this    ----------------------------
                         p    p                p    p                p    p                       
   play      ------------7----7-4--------------7----7-4--------------7----7-4------------7-------
  riff2      ----------------5---------------------5---------------------5-----------------------
  then play  ----3-----5---------------3-----5---------------3-----5---------------3---5---------
  riff1      -3-----1---------------3-----1---------------3-----1---------------3----------8-7-5-
   fast part
  ----------------------------------------------------------------------------------2-3-5-         
  ----------------------------------------------------------------------------2-3-5------- 
  -----2-3------2-3------2-3------2-3------2-3------2-3------2-3-55555555-3-5-------------   
  3333-----3333-----3333-----3333-----3333-----3333-----3333------------------------------
  slap bass part                
            t p t p              outro
  --------------------          --------- clean  -------------- 
  ------------5---5--- repeat   --------- guitar --------------
  -3--1--------------- 3 times  -3--1----  part  -3--2-0-------
  -------3--3---3-----          ---------        --------3---3-
    listen to the cd to get the right timing rythm. 
Аккорд BIG