Портал для гитаристов
gtars.ru

Refreshments — Dont Wanna Know

 Don't Wanna Know
The Refreshments
from David Cushman, http://gladstone.uoregon.edu/~dcushman/guitar.html



Riff 1
E|-------0---------------0---------------0-------------0-------------|
B|-----------0---0-----0-----0---0-----------0---0---0-----------0---|
G|-------------1---1h2---------2-------4-----------------1h2-------2-|
D|-----2---------------------------4-----------4---2-----------2-----|
A|-------------------------------------------------------------------|
E|-0-----------------------------------------------------------------|

Riff 2
E|-----------------------------------------------------------------------|
B|-4----4h5----4----4h5----4-h-5--4-/-9----9h10---10h12----10----9-------|
G|-4----4------4----4------4------4-/-9----9-------9--------9----9----9--|
D|-----------------------------------------------------------------------|
A|-----------------------------------------------------------------------|
E|-----------------------------------------------------------------------|

E|-----------------------------------------------------------------------|
B|-9h10p9---------4----4h5----4----4h5----4-h-5--4-/-9----9h10----10h12--|
G|---------9-----4----4------4----4------4------4-/-9----9--------------|
D|-----------------------------------------------------------------------|
A|-----------------------------------------------------------------------|
E|-----------------------------------------------------------------------|

E|-12-----------------------------|
B|-12----10--10--10--10--9--------|
G|--------------------------9----|
D|--------------------------------|
A|--------------------------------|
E|--------------------------------|

Riff 3
E|-----------------------------------------------------------------------|
B|-4----4h5----4----4h5----4-h-5--4-/-9----9h10---10h12----10----9-------|
G|-4----4------4----4------4------4-/-9----9-------9--------9----9----9--|
D|-----------------------------------------------------------------------|
A|-----------------------------------------------------------------------|
E|-----------------------------------------------------------------------|

E|---------------------------------------------------12------------------|
B|-9h10p9---------4----4h5----4----4h5----4-h-5--4-/-----12--------------|
G|---------9-----4----4------4----4------4------4-/---------11b---11--9-|
D|-----------------------------------------------------------------------|
A|-----------------------------------------------------------------------|
E|-----------------------------------------------------------------------|

E|-----12----------------------------------------------------------------|
B|-----12----------------------9-h-10---9--------(9)7-------------------|
G|------9-------------9-h-11----------------------------------2---------|
D|-11--------9-h-11------------------------------------------------------|
A|-----------------------------------------------------------------------|
E|-----------------------------------------------------------------------|
                                             ^Singing starts
E|---------------------------0-------------------------------------------|
B|-------------------------------2--------4------4--------2-----2--------|
G|-2h4p2-------------------------------------4------------2-----2--------|
D|-2h4p2--0-----------------------------------------------2-----2--------|
A|-----------4----2----2h4---------(4)2-----------(2)
Аккорд EАккорд Esus4Аккорд Asus2Аккорд C#mАккорд BАккорд F#mАккорд Dsus2