Портал для гитаристов
gtars.ru

Refused — Summerholidays Vs Punkroutine

 refused- summerholidays vs. punkroutine
tabbed by tom tha bassist

bass intro
g----------------------------
d--2-2-2-2-2-2-2-2-2---------
a----------------------------
e----------------------------

Verse
g----------------------------------------
d----------2-2----------2-0--------------
a----------------------------------------
e--0-2-4--------0-2-4-------------------

chorus variation
g-------------------------------------------
d--2-2-2-------2-2-2-------4-4-4--0-0-------
a-------------------------------------------
e----------0--0--------0--0-----------------

Chorus
g-----------------0-0----0-----------------------0h--------
d--2-2-2------2-2-----2-----4-4-4--0--0--------------------
a---------------------------------------------0-0-0--------
e--------0-0-----------------------------------------------

bass solo
g---------------------------------------
d--4-4-4-0--4-4-0--4-4-0--4-2-0---------
d---------------------------------------
e---------------------------------------

bass solo- part 2
g-----------------------------------------------------------
d----------------------0---------0-------0-------0---------
a--2-2-2-2-2-2-2-2-0-2---2-----2------2-------2------------
e--------------------------2-2------2-------2-------2-2----

bass solo- part 3
g-----------------------------------------------------
d-----------------------------------------------------
a-----------------------------------------------------
e---0-0-0-0-0-0-0-0--0-2-3-0h-3-2-0-------------------

bass solo- riff 4
g-----------------------------------------------------------
d-------------------------------------------------------
a-2-2-2---2-2---2-2---2--------------------------------
e-------3----3------3---3-2-0-0-0-0-0-0-0-0-2-3-0h--3-2-0---

bass solo- riff 5
g-----------------------------------------------------------
d--------------------4-4-4-4-2-2-2-2-0-0-0-0----------------
a--2-2-2---2-2---2-2------------------------3-3-3-3-2-2-2-2-
e--------3-----3--------------------------------------------

outro
g---------------------------------------------------------
d--4-4-4-4-2-2-2-2-0-0-0-0---------2-2-2-2-2-2-2-2--------
a--------------------------3-3-3-3------------------------
e---------------------------------------------------------

order:
guitar intro
guitar chord intro x2
bass+guitar intro x2
verse x8
chorus x2
verse x9
2 or so beats rest
chorus x5
chorus variation
bass solo
bass solo 2 x5
bass solo 3 x4
bass solo 4 x3
bass solo 5
chorus x4
chorus variation x2
outro
 

Refused — Summerholidays Vs Punkroutine

 song:Summerholiday Vs. Punkroutine
album: the shape of punk to come                      
trac:4
intro:
e------------------------------------------------
b------------------------------------------------
g-11-11-11-11-11-11------------------------------ 
d------------------12-9-7-5-3-------------------- ----|      
a------------------------------------------------     X4
e------------------9--7-5-3-1-------------------- ----| 
                  play each 8 times 
mainly the whole song is played on the G-string 11th fret

brige
e----------------------------------------------------
b----------------------------------------------------
g----------------------------------------------------
d-12-12--9--5-5--5--9--12-12-------------------------
a----------------------------------------------------
e--9--9--7--3-3--3--7---9--9-------------------------
listen to the song for the rythm 
if u have any corrections e-mail them to me at punkguy311@hotmail.com 

Refused — Summerholidays Vs Punkroutine

 Song: Summer Holidays vs. Punk Routine
Artist: Refused
Tabbed By: JoeBlanski1020

Tuning: EADGBe

opening:

  Guitar 1                 Guitar 2
e -----------------------|--------------------listen for strumming
B -----------------------|----------------------------------------
G 11-11---11-11-11---11--|--11--9---7--5--4-----------------------
D -----------------------|--x---x---x--x--x-----------------------
A -----------------------|--9---7---5--3--2-----------------------
E -----------------------|----------------------------------------

verse:
  Guitar 1
e ---------------------------
B ---------------------------    this is played several times. listen
G 11-11---11-11-11---11------    to get the rythm right.
D ---------------------------
A ---------------------------
E ---------------------------

bridge and chorus:
  guitar 1&2
e -------------------------------------------------------------
B ----------------------------------------(7)-(7)--------------
G -9-9-9-------9-9-9-12-12-9-12--11-11-11--7---7------------12-   
D -x-x-x-------x-x-x-x--x--x-x---x--x--x---x---x--7-7-7-7-7-x--
A -7-7-7--7-7--7-7-7-10-10-7-10--9--9--9---5---5--x-x-x-x-x-10-
E --------0-0-------------------------------------5-5-5-5-5----

the parenthesis are what the second guitar plays 

middle solo thingy:

e ------------------------------------------------------------
B ------------------------------------------------------------
G ------------------------------------------------------------
D ------------------------------------------------------------
A -7-7-7-------7-7-7-------9-9-9--5-5--9-9-9--5-5-------------
E --------0-0---------0-0-------------------------------------

e ------------------------------------------------------------
B ------------------------------------------------------------
G ------------------------------------------------------------
D ------------------------------------------------------------
A -(9)--------------------(5)-----------(3)---(2)-------------
E ------------------------------------------------------------

e ----------------------play a couple of times then-----------
B ------------------------------------------------------------
G --11------7-------9--------------------------------5--7--9--
D --x-------x-------x--------------------------------x--x--x--
A --9-------5-------7--------------------------------3--5--7--
E ------------------------------------------------------------


and that's basically it. just put the parts together and you got it.
some parts might be off but it sounds good to me. make sure your
guitar is tuned or it won't sound right, this is my first tab. if 
you have any questions instant message me on AIM: Joe Blanski 1020. 
Аккорд BАккорд GАккорд DАккорд AАккорд E