Портал для гитаристов
gtars.ru

Relient K — College Kids

 Song: College Кids
Artist: Relient К
Album: Two Lefts Don't Make a Right...But Three Do
Tabbed by: Sam Blake

 ---------------------
|Legend:              |
| x = palm mute       |
| ~ = let ring        |
| h = hammer-down     |
| p = pull-off        |
| / = slide up        |
|  = slide down      |
| G5 chords
e|-----------------|
B|-----------------|
G|-5---------------|
D|-5---3--55555555-|
A|-3---3--55555555-|
E|-----1--33333333-|


PRE-VERSE


VERSE


CHORUS


Interlude Rhythm:
Part One - play 1x
e|------|
B|------|
G|-5~~~-|
D|-5~~~-|
A|-3~~~-|
E|------|
Part Two - play 6x - ring out last chord
e|-----------------|
B|-----------------|
G|-55--55----------|
D|-55--55--55--7-5-|
A|-33--33--55--7-5-|
E|---------33--5-3-|

Interlude Lead: play 7x - end on G(5)
e|-----------------|
B|-55----665-------|
G|-------------7-4-|
D|---5577---555----|
A|-----------------|
E|-----------------|


Bridge Rhythm: all palm muted
Part One - play 4x 
e|------------------|
B|------------------|
G|-5555555544444444-|
D|-5555555555555555-|
A|-3333333322222222-|
E|------------------|
Part Two - play 1x
e|-------------|
B|-------------|
G|-555555554~~-|
D|-555555555~~-|
A|-333333332~~-|
E|-------------|

Bridge Lead: play 1x - play during 2nd time of Rhythm Part One
e|-----------------|
B|-55----665-------|
G|-------------7-4-|
D|---5577---555----|
A|-----------------|
E|-----------------|


Pre-verse Riff Rhythm:
Part One - play 1x - come in at the *s in the Lead part
e|-------|
B|-------|
G|-------|
D|-3---5-|
A|-3---5-|
E|-1---3-|
Part Two - play 3x
e|---------------|
B|---------------|
G|-5-------------|
D|-5---7---3---5-|
A|-3---7---3---5-|
E|-----5---1---3-|

Pre-verse Riff Lead: play 4x
e|--------------------------*--------------------------|
B|-----------8------------8-*-----------8--------------|
G|-9h10p9-------9h10p9------*-9h10p9----------9h10-7h9-|
D|--------10-----------10---*--------10----------------|
A|--------------------------*--------------------------|
E|--------------------------*--------------------------|


CHORUS


Outro Rhythm + Lead: play 4x - end with this
e|---------------|             |-------|
B|---------------|             |-------|
G|-5-------------|             |-5~~ 
Аккорд G5Аккорд G(5)

Relient K — College Kids

 College Кids by Relient К
Standard Tuning

G:-----------------------|
D:-----------------------|  x2
A:3~--0(16)--------------|
E:-----------1(16)--3(16)|

G:-----------------------|
D:-----------------------|
A:3(16)--0(16)-----------|
E:--------------1(16)--3~|

G:----------------|
D:--0-3-5----0-3-5|
A:3--------3------|
E:----------------|

G:-----------------|
D:-----------------|  x3
A:3(16)--0(8)------|
E:-------------1(8)|

G:--------------------|
D:--------------------|
A:3(16)--0(8)--0------|
E:----------------0--1|

G:-----------------|
D:-----------------|  x2
A:3(16)------------|
E:-------1(8)--3(8)|

G:----------------|
D:--0-3-5----0-3-5|
A:3--------3------|
E:----------------|

G:-----------------|
D:-----------------|  x3
A:3(16)--0(8)------|
E:-------------1(8)|

G:--------------------|
D:--------------------|
A:3(16)--0(8)--0------|
E:----------------0--1|

G:-----------------|      |----------|
D:-----------------|  x2  |----------|
A:3(16)------------|      |3~--------|
E:-------1(8)--3(8)|      |----------|

G:------------------|
D:------------------|
A:-----3-3-------0--|
E:1-1-------3-3----3|

G:----------------------|      |----------|
D:----------------------|  x2  |----------|
A:0--------3--0--------3|      |----------|
E:---3--1--------3--1---|      |1----3----|

G:---------------0|
D:---------0--3---|
A:------3---------|
E:1--3------------|

G:----------------|
D:--0-3-5----0-3-5|
A:3--------3------|
E:----------------|

G:-----------------|
D:-----------------|  x2
A:3(16)------------|
E:-------1(8)--3(8)|

G:--------------------------|
D:--------------------------|
A:3(16)--0(16)--------------|
E:--------------1(16)--3(16)|

G:-----------------------|
D:-----------------------|
A:3(16)--0(16)-----------|
E:--------------1(16)--3~|

(Outro)
G:--------------|
D:--------------|
A:3~------------|
E:--------------|

Thanks, please rate it after you learn it.
Tabbed by:
_TheBassist01_