Портал для гитаристов
gtars.ru

Relient K — Falling Out

 Intro: 
 Bb5        Bbsus4        Bb                    Gm        Bbsus2
e-----------------------------------------------------------------
B-3---3---3---3---4---4---4---4---3---3---3---3---3---3---1---1---
G---3---3---3---3---3---3---3---3---3---3---3---3---3---3---3---3-
D-----------------------------------------------------------------
A-----------------------------------------------------------------
E-----------------------------------------------------------------
                                                e-----------------
                                                B-3---3---1---1---
                                                G---3---3---3---3-
                                                D-5-------3-------
                                                A-----------------
                                                E-----------------

Verse 1
Bb  Cm7  Ebmaj7
Gm  Fsus4  
Bb  Cm7  Ebmaj7
Gm  Fsus4

Pre Chorus
D5  Eb5  Bb5  F5
D5  Eb5  Bb5  F5

Interlude 1
Bb  Cm7  Ebmaj7  Gm  Fsus (repeat)    Dm   Eb
                                     Band  aid
                                   e----------------
                                   B--6-------8-----
                                   G----------------
                                   D----------------
                                   A--5-------6-----
                                   E----------------

Chorus Chords 
Bb5                                                C5                  G5
I'm out here                                 way beyond a shadow of a doubt
Chorus Riff
e----------------------------------------------------------------------------
B-6-----3-----6-----3-----6------3-----6-----3-----6-----4-----6----4--------
G----3-----3-----3-----3------3-----3-----3-----3-----3-----3-----3----3-----
D----------------------------------------------------------------------------
A----------------------------------------------------------------------------
E----------------------------------------------------------------------------
                              Eb5               Bb
and I know I've never fallen out of favor with you
                 Cm7(add11)            Gm7
I'm out here way beyond a shadow of a doubt
                                Eb5                                    Bb
and I know I've never fallen out                         of favor with you
                                 (fallen out, fallen out)

Interlude 2
Bb                         Cm7                     Ebmaj7
Interlude 2 riff
e-10----10----10----10-----11----11----11----11----10----10----10----10------
B----11----11----11----11-----11----11----11----11--3--11---11----11----11---
G-3-------------------------5------------------------------------------------
D----------------------------------------------------------------------------
A----------------------------------------------------------------------------
E----------------------------------------------------------------------------
  Gm          Fsus4      Bb     Cm7      Ebmaj7                     F5
e-10----10-------------------------------------------------10----10----------
B----11----11-13-11-13-11-------------------------------------11----11-------
G----------------------------------------------------------------------------
D-5-----------3--------------------------------------------5-----------------
A----------------------------------------------------------------------------
E----------------------------------------------------------------------------

Bridge
Ab5 G5 F5 Bb F/A Gm Eb F Bb F/A 

(Repeat Pre chorus)

(Chorus 2)

Chorus 2 Chords
Bb5 C7(no3rd) Gm Eb5
Bb5 C7(no3rd) Gm Eb5

Outro
Bb  Cm7  Ebmaj7  Gm  Fsus4
Bb  Cm7  Ebmaj7  Ebm(maj7)  Bb5

Outro riff
e----------------------------------------------------------------------------
B-3---3---3---3----7--7--7--7--7--7------------------------------------------
G---3---3---3---3--8--8--8--8--8--8-----3------------------------------------
D---------------------------------------3------------------------------------
A---------------------------------------1------------------------------------
E------------------------------------0--------------------------------------- 
Аккорд Bb5Аккорд Bbsus4Аккорд BbАккорд GmАккорд Bbsus2Аккорд Cm7Аккорд Ebmaj7Аккорд Fsus4Аккорд D5Аккорд Eb5Аккорд F5Аккорд FsusАккорд DmАккорд EbАккорд C5Аккорд G5Аккорд Cm7(add11)Аккорд Gm7Аккорд Ab5Аккорд F/AАккорд FАккорд Ebm(maj7)

Relient K — Falling Out

 Falling out by Relient К
Standard Tuning

(Intro)
G:---------------------------------|
D:-----------1(8)------------------|  x4
A:1(8)--3(8)-----------------------|
E:-----------------3-3-3-3--1-1-1-1|

G:--------------------|
D:--------------------|  x2
A:0-0--0-0--1(16)-----|
E:----------------1(8)|

Intro x3

G:--------------------|
D:--------------------|  x2
A:0-0--0-0--1(16)-----|
E:----------------1(8)|

G:--------------------------|
D:--------------------------|
A:1(16)--3(16)---------1(16)|
E:--------------3(16)-------|

G:----------------------------------------|
D:----------------------------------------|
A:1(16)--3(16)---------1-1-1--1-1-1--1-1-1|
E:--------------3(16)---------------------|

  |--with piano--|
G:-------------------------|
D:----------1----5---------|
A:1----3-------------------|
E:--------------------1-1-1|

G:---------------------------|
D:-----------1(8)------------|
A:1--0-------------3(8)--1--0|
E:------3(8)-----------------|

G:--------------------|
D:--------------------|  x2
A:0-0--0-0--1(16)-----|
E:----------------1(8)|

G:--------------------------|
D:--------------------------|
A:1(16)--3(16)---------1(16)|
E:--------------3(16)-------|

G:----------------------------------------|
D:----------------------------------------|
A:1(16)--3(16)---------1-1-1--1-1-1--1-1-1|
E:--------------3(16)---------------------|

G:---------------------------------|
D:-----------1(8)------------------| 
A:1(8)--3(8)-----------------------|
E:-----------------3-3-3-3--1-1-1-1|

(Outro)
G:-------------------|
D:-----------1(16)---|
A:1(8)--3(8)-------1~|
E:-------------------|

Thanks, please rate after you learn it.
Tabbed by:
_TheBassist01_