Портал для гитаристов
gtars.ru

Relient K — For The Moments I Feel Faint

 Author/Artist: Relient К
Title: For the Moments I Feel Faint
Album: The Anatomy of Tongue in Cheek
Transcribed by: Ryan W
Email: pyrofreek_9@hotmail.com
Tuning:  Standard


This has been tabbed a few times already, but I have the intro part on the violin added.


E      -  022100
A2     -  002200
C#m7   -  x46600
Bmsus  -  x24400
Bbmaj9 -  x24000
Cdim   -  x42400
C2     -  x35500
F#msus -  244300
Asus2  -  577600


Riff1:

-|--0----0----0----0----0----0----0----0----0----0--|
-|--x----x----x----x----x----x----x----x----x----x--|
-|--13---13---14---13---11---13---13---8----9----11-|
-|--x----x----x----x----x----x----x----x----x----x--|
-|--11---11---12---11---9----11---11---6----7----9--|
-|--0----0----0----0----0----0----0----0----0----0--|


Verse 1
E            A2     C#m7        Bmsus
 Am I at the point     of no improvement?
E            A2      C#m7        Bmsus  Bbmaj9
 What of the death I still dwell in?
E          A2          C#m7    Bmsus
 I try to excel, but I feel no movement.
E         A2           C#m7         Bmsus  Bbmaj9
 Can I be free of this unreleasable sin?



CHORUS:

E     A2     Cdim       Bmsus
Never underestimate my Jesus.
E                  A2   
You're telling me there's no hope.
    Cdim             Bmsus  Bbmaj9
I'm telling you your wrong.
E     A2     Cdim       Bmsus
Never underestimate my Jesus
E                A2   
When the world around you crumbles
Cdim          Bmsus           
He will be strong, He will be strong


(Riff1)


Verse 2:

E             A2     C#m7              Bmsus
I throw up my hands     Oh, the impossibilities
E              A2            C#m7       Bmsus  Bbmaj9
Frustrated and tired Where do I go from here?
E                 A2                 C#m7         Bmsus
Now I'm searching for the confidence I've lost so willingly
E                A2        C#m7               Bmsus  Bbmaj9
Overcoming these obstacles   is overcoming my fear


(CHORUS)



Bridge:

E                   A2
   I think I can't,     I think I can't
C#m7            C2
But I think you can, I think you can
E                   A2
   I think I can't,     I think I can't
C#m7            C2
But I think you can, I think you can


F#msus                Asus2
Gather my insufficiencies and
                   E      A2                 C#m7   Bmsus
place them in your hands, place them in your hands, place them in your hands

(Riff 1)

(CHORUS)

(Riff 1)
End on E 
Аккорд EАккорд A2Аккорд C#m7Аккорд BmsusАккорд Bbmaj9Аккорд CdimАккорд C2Аккорд F#msusАккорд Asus2Аккорд Am

Relient K — For The Moments I Feel Faint

 ok i am pretty sure this is right...this is a great band and a great song any
comments my email is Axle1884@msn.com
Tuning: Standard
x-mute

Verse

      E           A           C#         B
e|----0-----|-----0-----|-----x-----|----x----|
B|----0-----|-----0-----|-----x-----|----x----|
G|----1-----|-----2-----|-----6-----|----4----|
D|----2-----|-----2-----|-----6-----|----4----|
A|----2-----|-----0-----|-----4-----|----2----|
E|----0-----|-----0-----|-----x-----|----x----|

THE CHORUS IS THE SAME AS THE VERSE

Bridge

      E          A          C#         C
e|----0-----|----0-----|----x-----|----x----|
B|----0-----|----0-----|----x-----|----x----|
G|----1-----|----2-----|----6-----|----5----|
D|----2-----|----2-----|----4-----|----5----|
A|----2-----|----0-----|----4-----|----3----|
E|----0-----|----0-----|----x-----|----x----|


****This is that one part that is played on a violin i think........anyways this
is how to play it on guitar****
e|-----------------------------------------------|
B|-----------------------------------------------|
G|-----------------------------------------------|
D|-6--6--6-6-6--7--6--4--6---6--6--6-------------|
A|--------------------------------------6--7-----|
E|-----------------------------------------------|

End on     
        E
e|------0--------|
B|------0--------|
G|------1--------|
D|------2--------|
A|------2--------|
E|------0--------|

well thats it listen to the song to get the strumming down its pretty easy 
Аккорд EАккорд AАккорд C#Аккорд BАккорд C