Портал для гитаристов
gtars.ru

Relient K — Im Lion-o

 Clean intro - 0:00

|---------------------------------------
|---------------------------------------
|-9-------6---4------------9------------
|-9x8-7---6x8-4x8---End on-9------------
|-7---7x8-4---2------------7------------
|-----5---------------------------------

Main part w/distortion - 1:01

|---------------------------------------
|---------------------------------------
|-9-9-9--------6-6-6-4--4-4-------------
|-9-9-9-7--7-7-6-6-6-4--4-4-------------
|-7-7-7-7--7-7-4-4-4-2--2-2-------------
|-------5--5-5--------------------------

Riff over the main part - 1:07

|---------------------------------------
|---------------------------------------
|---------------------------------------
|---------7p6-6p4-6-----------7p6-6h7-9-
|7-7-4-7-------------7-7-4-7------------
|---------------------------------------

Little riff over palm muted E power chords - 1:42, 2:08 

|---------------------------------------
|-4h5-7-5p4-4h5-------------------------
|---------------------------------------
|---------------------------------------
|---------------------------------------
|---------------------------------------

After the 2:08 riff, main guitar palm mutes:

|---------------------------------------
|---------------------------------------
|-6-------9-----------------------------
|-6x8-7---9x8-9-------------------------
|-4---7x8-7---9x8-----------------------
|-----5-------7-------------------------
After the little riff plays twice: at 2:21, play the chords
with out palm muting once, then go back into palm muting for
one more progression, playing the last power chord unmuted.
(really easy to understand if you just listen to the song)

Riff during the interlude. Starts at 1:28 and repeats seven
times until 3:09, where the main part comes in until the end of the song.

|---------------------------------------
|---------------------------------------
|---------------------------------------
|----6----6------6----6---9--9--7-6--4--
|-7-----7-----7-----7-------------------
|---------------------------------------

End on

|---
|---
|-9-
|-9-
|-7-
|--- 
Аккорд E

Relient K — Im Lion-o

 I'm Lion-О by Relient К
Standard Tuning

(Intro)
G:----------|----------|----------|----------|
D:------2--2|------2--2|------2--2|----------|
A:----------|0--0------|2--2------|--2----2--|
E:0--0------|----------|----------|----------|

G:----------|----------|----------|----------|
D:2--2--2--2|----------|----------|----------|  x4
A:----------|0--0--0--0|4--4--4--4|2--2--2--2|
E:----------|----------|----------|----------|

G:----------|----------|----------|----------|
D:------2--2|------2--2|------2--2|----------|  x2
A:----------|0--0------|2--2------|--2----2--|
E:0--0------|----------|----------|----------|

G:----------|----------|----------|----------|
D:2--2--2--2|----------|----------|----------|  x4
A:----------|0--0--0--0|4--4--4--4|2--2--2--2|
E:----------|----------|----------|----------|

G:----------|----------|----------|----------|
D:------2--2|------2--2|------2--2|----------|  x4
A:----------|0--0------|2--2------|--2----2--|
E:0--0------|----------|----------|----------|

G:----------|----------|----------|----------|
D:----------|----------|----------|----------|  x2
A:2--2--2--2|4--4--4--4|----------|2--2--2--2|
E:----------|----------|4--4--4--4|----------|

G:----------|----------|----------|----------|
D:----------|----------|----------|----------|  x4
A:4--4--4--4|0--0--0--0|----------|2--2--2--2|
E:----------|----------|0--0--0--0|----------|

G:----------|----------|----------|----------|
D:------2--2|------2--2|------2--2|----------|  x3
A:----------|0--0------|2--2------|--2----2--|
E:0--0------|----------|----------|----------|

G:----------|----------|----------|----------|
D:2--2--2--2|----------|----------|----------|  x4
A:----------|0--0--0--0|4--4--4--4|2--2--2--2|
E:----------|----------|----------|----------|

G:----------|----------|----------|----------|
D:------2--2|------2--2|------2--2|----------|  x6
A:----------|0--0------|2--2------|--2----2--|
E:0--0------|----------|----------|----------|

(Оuтrо)
G:----------|----------|----------|----------|
D:----------|----------|----------|----------|
A:----------|----------|----------|----------|
E:0--0--0--0|0--0--0--0|----------|----------|

Thanks, please rate it after you learn it. 
Tabbed by:
_TheBassist01_