Портал для гитаристов
gtars.ru

Relient K — Less Is More

 Less is More by Relient К
Standard Tuning

G:----------------------|
D:----------------------|  x5
A:------1--1--3--3------|
E:1--1--------------1--1|

G:----------------------|      |----------|
D:----------------------|  x2  |----------|
A:------1--1--------3--3|      |----------|
E:3--3--------1--1------|      |--3----3--|

  Кnоw what im trying to say. . . 
G:----------|
D:----------|
A:--1----1--|
E:----------|

G:----------------------|
D:----------------------|  x4
A:------1--1--3--3------|
E:1--1--------------1--1|

G:----------------------|      |----------|
D:----------------------|  x2  |----------|
A:------1--1--------3--3|      |----------|
E:3--3--------1--1------|      |--3----3--|

(piano until the end of the song)

Thanks, please rate it after you learn it.
Tabbed by:
_TheBassist01_ 

Relient K — Less Is More

 Less is more by Relient К tab
this is my first tab.

standard tuning (E,A,D,G,B,e)

Jesus I pray.... (piano intro)


pre-chourus: Do-do- do doo- do doot.....
e----------------------------------------------------------------|
B----------------------------------------------------------------|
G------------------3--3--3--3--5--5--5--5------------------------|
D-- 3--3--3--3--3--3--3--3--5--5--5--5--3--3--3--3---------------|
A-- 3--3--3--3--1--1--1--1--3--3--3--3--3--3--3--3---------------|
E-- 1--1--1--1--------------------------------1--1--1--1---------|

CHORUS: All that I have, I lay before....
e----------------------------------------------------------------|
B----------------------------------------------------------------|
G------------------3--3--3--3--5--5--5--5------------------------|
D-- 3--3--3--3--3--3--3--3--5--5--5--5--3--3--3--3---------------|
A-- 3--3--3--3--1--1--1--1--3--3--3--3--3--3--3--3---------------|
E-- 1--1--1--1--------------------------------1--1--1--1---------|

After chorus: I pour out myself...
e--------------------------------------------------------------------------------|
B--------------------------------------------------------------------------------|
G--------------------------------3--3--3--3--3--3--3--3--------------------------|
D--5--5--5--5--5--5--5--5--3--3--3--3--3--3--3--3--3--3--3--3--3--3--3--3--------|
A--5--5--5--5--5--5--5--5--1--1--1--1--1--1--1--1--3--3--3--3--3--3--3--3--------|
E--3--3--3--3--3--3--3--3--------------------------------1--1--1--1--1--1--1--1--|

e--------------------------------------------|
B--------------------------------------------|
G--5--5--5--5--5--5--5--5--------------------|
D--5--5--5--5--5--5--5--5-- 5----------------|
A--3--3--3--3--3--3--3--3-- 5----------------|
E-------------------------------- 3----------|

song structure:
intro
pre-chorus
chorus
after chorus
chorus
after chorus
intro/outro


Lyrics:

INTRO
Jesus, I pray
Take all my mistakes
Throw them away
Destroy them for my sake

Jesus, I call out 'cause I'm sorry
Because I fall so short of your glory
To the best of my ability
I'm practicing humility
And I lay myself before
'Cause less is more

PRE CHORUS
do-doot-do-do-do-doot...

CHORUS
All that I have
I lay before
With my pride on the floor
Cause to you less is more
All that I have
I lay before
With my pride on the floor
Cause to you less is more

I pour out myself
All that I am
You love me so much
That you fill me again
And may these words on my heart, on my lips
Somehow mean so much more than this

Jesus, I pray
Кnоw what I'm trying to say

CHORUS
All that I have
I lay before
With my pride on the floor
'Cause to you less is more
All that I have
I lay before
With my pride on the floor
Cause to you less is more

AFTER CHORUS
I pour out myself, before you were Lord
I hold nothing back, 'cause to you less is more
And may these words on my heart on my lips,
Somehow mean so much more than this

Jesus, I pray
Just know what I'm tryin' to say

OUTRO
Jesus, I plead
Please purify me
Make my heart clean
Drench me with your mercy
Jesus, I pray
I love you, I need you
For the rest of my days
I swear I will seek you
To the best of my ability
I'm practicing humility
And I lay myself before
'Cause less is more. 
Аккорд D--Аккорд A--Аккорд E--

Relient K — Less Is More

 Less Is More
Relient К
Capo 1st fret

E--10-10-10-10-9-9-9-9-12-12-12-12-11-11-12-12-11 repeat for intro

E              Asus2        B9         E        Asus2                 B9
Jesus, I pray, take all my mistakes. Throw them away. Destroy them for my sake.

     E          Asus2             B9          E      Asus2       B9
 Jesus, I call out ?cause I?m sorry. Because I fall so short of your glory.

  C#9             Asus2    B9               E                         Am
To the best of my ability, I?m practicing humility, and I lay myself before ?cause less is

 E
more.

E   Asus2  B9 E     x2

(chorus)
E          Asus2 B9          E                    Asus2   B9                    E
All that I have I lay before with my pride on the floor. ?cause to you less is more.(repeat)

C#9         Asus2             E                   B9                    C#9
I pour out myself, all that I am. You love me so much that you fill me again. And may

      Asus2                            E       B9                    C#9
these words, on my heart, on my lips, somehow mean so much more than this. Jesus, I

                     Am
pray, know what I?m trying to say. (chorus)

C#9         Asus2                  E
I pour out myself, before you, oh Lord. I hold nothing

  B9                        C#9                 Asus2                       E
back, ?cause to you less is more. And may these words, on my heart, on my lips,

    B9                                            C#9
somehow mean so much more than this. Jesus, I pray, know what I?m trying to say.

  E       Asus2    B9              E            Asus2                                B9           E
Jesus, I plead, please purify me. Make my heart clean, drench me with your mercy. Jesus,

  Asus2                B9               E          Asus2                              B9    C#9
I pray, I love you, I need you for the rest of my days, I swear I will seek you. To the best

      Asus2                     B9                  E     Am                           E
of my ability, I?m practicing humility, and I lay myself before, cause less is more.

E A D G B E
E:         0-2-2-3-0-0-|
Asus2:     X-0-2-2-0-0-|
B9:        X-2-4-4-0-0-|
C#9:       X-4-6-6-0-0-| 
Аккорд EАккорд Asus2Аккорд B9Аккорд C#9Аккорд AmАккорд AАккорд DАккорд GАккорд B