Портал для гитаристов
gtars.ru

Relient K — Pressing On

 Pressing on by Relient К
Standard Tuning

(Intro)
G:-------------|
D:-------------|  x3
A:4------------|
E:----4---6---2|

G:-------------|
D:-------------|  x4
A:-------------|
E:9---8---6---2|

G:--------------------------------|
D:--------------------------------|
A:4-6-6--4-4-6-6--4---------------|
E:------------------1-2-2--1-1-2-2|

G:------------------------------------|
D:------------------------------------|
A:4-----4-6-6--4-4-6-6----------------|
E:---4------------------1-2-2--1-1-2-2|

(Chorus)
G:-------------|      |--------|
D:-------------|  x4  |--------|
A:4------------|      |--------|
E:----4---6---2|      |2------4|

Intro x1

G:--------------------------------|
D:--------------------------------|
A:4-6-6--4-4-6-6--4---------------|
E:------------------1-2-2--1-1-2-2|

G:------------------------------------|
D:------------------------------------|
A:4-----4-6-6--4-4-6-6----------------|
E:---4------------------1-2-2--1-1-2-2|

Chorus x4

G:--------|
D:--------|
A:--------|
E:2------4|

Chorus x2

(Guitar)

G:-------------|
D:-------------|  
A:4------------|
E:----4---6---2|

Chorus x3
G:--------|
D:--------|
A:--------|
E:2------4|

Chorus x4
G:--------|
D:--------|
A:--------|
E:2------4|

G:------------------------------------------------|
D:------------------------------------------------|
A:4(16)----------------------4-------------------4|
E:------2-2-2-2--1/4-4-4-4-6---2-2-2-2-1/4-4-4-4--|

G:----------------------|
D:----------------------|
A:------------------4(8)|
E:2(8)--4(8)--6(8)------|

(Outro)
G:--------|
D:--------|
A:-------4|
E:2---4---|

Thanks, please rate it after you learn it.
Tabbed by:
_TheBassist01_ 

Relient K — Pressing On

 Relient К  
Pressing On
The Anatomy Of The Tongue In Cheek
Standard Tuning
Tabbed By Mike, NewFoundWeez182@aol.com
(Strumming Not Shown)


Intro Gt1
E--------------------------
B--------------------------
G--------------------------
D---3h4---3-1---3h4---3-1--
A-4-----------1------------
E-------4-----------2------

Gt2
E----------
B----------
G-6--------
D-6-6-8-4--
A-4-6-8-4--
E---4-6-2—

Verse (on last time play with out PM)
E----------
B----------
G-6-6-3----
D-6-6-3-4--
A-4-3-1-4--
E-------2—-
PM* * * *

Pre-Chorus
E-------------------------------|------
B-------------------------------|------
G-6/8--6/8—-10/11—-10/11---6----|------
D-6/8--6/8—-10/11—-10/11---x-6--|-4-6--
A-4/6--4/6---8/-9---8/-9---4-6--|-4-6--
E----------------------------4--|-2-4—

Chorus
E----------|------
B----------|------
G-6--------|------      
D-6-6-8-4—-|-4/6--
A-4-6-8-4--|-4/6--
E---4-6-2--|-2/4—-

(Verse)
(Pre-Chorus)
(Chorus)
(Intro)
(Chorus)

Bridge
E-----------------------------------------------------------------
B-----------------------------------------------------------------
G-6---6---6---6---5---5---5---5---6---6---6---6---8---8---8---5---
D---6---6---6---6---6---6---6---6---6---6---6---6---6---6---6---6-
A-----------------------------------------------------------------
E-----------------------------------------------------------------

Ending
E--------------
B--------------
G---------6~~--
D-4~~-6~~-6~~--
A-4~~-6~~-4~~--
E-2~~-4~~------

A very good and easy song. Im pretty certain that this tab is correct,
but if you have any corrections, then just e-mail me. 
Аккорд E----------Аккорд B----------Аккорд G-6--------Аккорд G-6-6-3----Аккорд G-6Аккорд D-6Аккорд A-4Аккорд A

Relient K — Pressing On

 Proudly Brought To You By: X-Red
Questions? Comments? Complaints? Email me at: Redguitar@aol.com
Artist: Relient К
Song Pressing On (from their album The Anatomy of the Tongue in Cheek)
Tuning: Standard (EADGBE)
Tab Кеу:
~  = Palm Mute
/  = Slide
*  = Let Ring
#) = Alternate fingering

Intro
Guitar 1 [*Play this 4 times*]
e|--------------------------------------------------|
B|--------------------------------------------------|
G|--------------------------------------------------|
D|-----3h4-----3-1-----3h4-----3-1------------------|
A|-4-4-------------1-1------------------------------|
E|---------4-4-------------2-2----------------------|

Guitar 2 [*Starts after Guitar 1 plays intro 1 time, Play this 3 times*]
e|--------------------------------------------------|
B|--------------------------------------------------|
G|--------------------------------------------------|
D|-6------------------------------------------------|
A|-4----6----8----4---------------------------------|
E|------4----6----2---------------------------------|

Verse
Guitar 1 & Guitar 2 (Play at same time) [*Play this 3 times*]
e|--------------------------------------------------|
B|--------------------------------------------------|
G|--------------------------------------------------|
D|-6~~~~--------------------------------------------|
A|-4~~~~6~~~~8~~~~4~~~~-----------------------------|
E|------4~~~~6~~~~2~~~~-----------------------------|

Guitar 1 [*Play this 1 time]
e|--------------------------------------------------|
B|--------------------------------------------------|
G|--------------------------------------------------|
D|-6-6-6-6------------------------------------------|
A|-4-4-4-4-6-6-6-6-8-8-8-8-4-4-4-4------------------|
E|---------4-4-4-4-6-6-6-6-2-2-2-2------------------|

Guitar 2 [*Play this 1 time with a combination of upstrokes and downstrokes*]
e|--------------------------------------------------|
B|--------------------------------------------------|
G|--------------------------------------------------|
D|-66666666-----------------------------------------|
A|-44444444666666668888888844444444-----------------|
E|---------444444446666666622222222-----------------|

Guitar 1 [*Play this 1 time while Guitar 2 rests*]
e|--------------------------------------------------|
B|--------------------------------------------------|
G|-6/8-8--6/8-8--8/10-10--8/10-10-------------------|
D|-6/8-8--6/8-8--8/10-10--8/10-10-------------------|
A|-4/6-6--4/6-6--6/-8--8--6/-8--8-------------------|
E|--------------------------------------------------|

Guitar 2 [*Rests as Guitar 1 plays the tab above*]

Guitar 1 [*Play this 1 time*]
e|--------------------------------------------------|
B|--------------------------------------------------|
G|------------------6/8-8--6/8-8--8/10-10--8/10-10--|
D|-6-6-6-6----------6/8-8--6/8-8--8/10-10--8/10-10--|
A|-4-4-4-4-6-6-6-6--4/6-6--4/6-6--6/-8--8--6/-8--8--|
E|---------4-4-4-4----------------------------------|

Guitar 2 [*Play this 1 time*] 
e|--------------------------------------------------|
B|--------------------------------------------------|
G|--------------------------------------------------|
D|-6-6-6-6------------------------------------------|
A|-4-4-4-4-6-6-6-6-8-8-8-8-4-4-4-4------------------|
E|---------4-4-4-4-6-6-6-6-2-2-2-2------------------|

Guitar 1 & Guitar 2 (Play at same time) [*Play this 1 time*]
e|--------------------------------------------------|
B|--------------------------------------------------|
G|--------------------------------------------------|
D|-6-6-6-6------------------------------------------|
A|-4-4-4-4-6-6-6-6-4-4-4-4-6-6-6--------------------|
E|---------4-4-4-4-2-2-2-2-4-4-4--------------------|

Chorus
Guitar 1 & Guitar 2 (Add Variation of similar rhythm if you want) [*Play this 3 times*]
e|--------------------------------------------------|
B|--------------------------------------------------|
G|--------------------------------------------------|
D|-6-6----------------------------------------------|
A|-4-4-6-6-6-6-8-8-4-4-4-4--------------------------|
E|-----4-4-4-4-6-6-2-2-2-2--------------------------|

Guitar 1 & Guitar 2 (Play at same time) [*Play this 1 time*]
e|--------------------------------------------------|
B|--------------------------------------------------|
G|--------------------------------------------------|
D|--------------------------------------------------|
A|-4-4-4-4-6-6-6------------------------------------|
E|-2-2-2-2-4-4-4------------------------------------|

Verse
Guitar 1 & Guitar 2 (Play at same time) [*Play this 3 times*]
e|--------------------------------------------------|
B|--------------------------------------------------|
G|--------------------------------------------------|
D|-6~~~~--------------------------------------------|
A|-4~~~~6~~~~8~~~~4~~~~-----------------------------|
E|------4~~~~6~~~~2~~~~-----------------------------|

Guitar 1 [*Play this 1 time*]
e|--------------------------------------------------|
B|--------------------------------------------------|
G|--------------------------------------------------|
D|-6-6-6-6------------------------------------------|
A|-4-4-4-4-6-6-6-6-8-8-8-8-4-4-4-4------------------|
E|---------4-4-4-4-6-6-6-6-2-2-2-2------------------|

Guitar 2 [*Play this 1 time with a combination of upstrokes and downstrokes*]
e|--------------------------------------------------|
B|--------------------------------------------------|
G|--------------------------------------------------|
D|-66666666-----------------------------------------|
A|-44444444666666668888888844444444-----------------|
E|---------444444446666666622222222-----------------|

Guitar 1 [*Play this 1 time while Guitar 2 rests*]
e|--------------------------------------------------|
B|--------------------------------------------------|
G|-6/8-8--6/8-8--8/10-10--8/10-10-------------------|
D|-6/8-8--6/8-8--8/10-10--8/10-10-------------------|
A|-4/6-6--4/6-6--6/-8--8--6/-8--8-------------------|
E|--------------------------------------------------|

Guitar 2 [*Rests as Guitar 1 plays the tab above*]

Guitar 1 [*Play this 1 time*]
e|--------------------------------------------------|
B|--------------------------------------------------|
G|------------------6/8-8--6/8-8--8/10-10--8/10-10--|
D|-6-6-6-6----------6/8-8--6/8-8--8/10-10--8/10-10--|
A|-4-4-4-4-6-6-6-6--4/6-6--4/6-6--6/-8--8--6/-8--8--|
E|---------4-4-4-4----------------------------------|

Guitar 2 [*Play this 1 time*] 
e|--------------------------------------------------|
B|--------------------------------------------------|
G|--------------------------------------------------|
D|-6-6-6-6------------------------------------------|
A|-4-4-4-4-6-6-6-6-8-8-8-8-4-4-4-4------------------|
E|---------4-4-4-4-6-6-6-6-2-2-2-2------------------|

Guitar 1 & Guitar 2 (Play at same time) [*Play this 1 time*]
e|--------------------------------------------------|
B|--------------------------------------------------|
G|--------------------------------------------------|
D|-6-6-6-6------------------------------------------|
A|-4-4-4-4-6-6-6-6-4-4-4-4-6-6-6--------------------|
E|---------4-4-4-4-2-2-2-2-4-4-4--------------------|

Chorus
Guitar 1 & Guitar 2 (Add Variation of similar rhythm if you want) [*Play this 3 times*]
e|--------------------------------------------------|
B|--------------------------------------------------|
G|--------------------------------------------------|
D|-6-6----------------------------------------------|
A|-4-4-6-6-6-6-8-8-4-4-4-4--------------------------|
E|-----4-4-4-4-6-6-2-2-2-2--------------------------|

Guitar 1 & Guitar 2 (Play at same time) [*Play this 1 time*]
e|--------------------------------------------------|
B|--------------------------------------------------|
G|--------------------------------------------------|
D|--------------------------------------------------|
A|-4-4-4-4-6-6-6------------------------------------|
E|-2-2-2-2-4-4-4------------------------------------|

Guitar 1 & Guitar 2 (Play at same time) [*Play this 1 time*]
e|--------------------------------------------------|
B|--------------------------------------------------|
G|--------------------------------------------------|
D|-6-6----------------------------------------------|
A|-4-4-6-6-6-6-8-8-4-4-4-4--------------------------|
E|-----4-4-4-4-6-6-2-2-2-2--------------------------|

Guitar 1 & Guitar 2 (Play at same time) [*Play this 1 time*]
e|--------------------------------------------------|
B|--------------------------------------------------|
G|--------------------------------------------------|
D|-6-6----------------------------------------------|
A|-4-4-6-6-6-6-8-8-4--------------------------------|
E|-----4-4-4-4-6-6-2--------------------------------|

Intro
Guitar 1 [*Play this 4 times*]
e|--------------------------------------------------|
B|--------------------------------------------------|
G|--------------------------------------------------|
D|-----3h4-----3-1-----3h4-----3-1------------------|
A|-4-4-------------1-1------------------------------|
E|---------4-4-------------2-2----------------------|

Guitar 2 
  *Starts after Guitar 1 plays 1/2 time (at the chord 8-8-6)
  *Play this 3 times ()= Play only first half
e|--------------------------------------------------|
B|--------------------------------------------------|
G|--------------------------------------------------|
D|-(8----4)----6------------------------------------|
A|-(6----2)----4----6----8----4---------------------|
E|------------------4----6----2---------------------|

Guitar 1 & Guitar 2 (Play at same time) [*Play this 1 time*]
e|--------------------------------------------------|
B|--------------------------------------------------|
G|--------------------------------------------------|
D|-6****--------------------------------------------|
A|-4****-6****--4-4-4-4-6-6-6-----------------------|
E|-------4****--2-2-2-2-4-4-4-----------------------|

Guitar 1 & Guitar 2 (Play at same time) [*Play this 4 times*]
e|--------------------------------------------------|
B|--------------------------------------------------|
G|--------------------------------------------------|
D|-6-6----------------------------------------------|
A|-4-4-6-6-6-6-8-8-4-4-4-4--------------------------|
E|-----4-4-4-4-6-6-2-2-2-2--------------------------|

Guitar 1 & Guitar 2 (Play same time) [*Play this 1 time*]
e|--------------------------------------------------|
B|--------------------------------------------------|
G|--------------------------------------------------|
D|------------------6****---------------------------|
A|-4-4-4-4-6-6-6----4****---------------------------|
E|-2-2-2-2-4-4-4------------------------------------|

Interlude (Ending; Slow Part)
Guitar 1 (& Guitar 2 if you want) [*Play this 1 time*] 
e|--------------------------------------------------|
B|-6-6-6-6--6-6-6-6--6-6-6-5--8-8-8-5---------------|
G|--------------------------------------------------|
D|--------------------------------------------------|
A|--------------------------------------------------|
E|--------------------------------------------------|

Guitar 1 (& Guitar 2 if you want) [*Play this 1 time*]
e|--------------------------------------------------|
B|-6-6-6-5--6-6-6-5--6-6-6-6--6-6-6-6---------------|
G|--------------------------------------------------|
D|--------------------------------------------------|
A|--------------------------------------------------|
E|--------------------------------------------------|

Guitar 1 (& Guitar 2 if you want) [*Play this 1 time*]
e|--------------------------------------------------|
B|-6-6-6-5--6-6-6-5--6-6-6-5--8-8-8-5---------------|
G|--------------------------------------------------|
D|--------------------------------------------------|
A|--------------------------------------------------|
E|--------------------------------------------------|

Guitar 1 & Guitar 2 (Play at same time) [*Play this 1 time]
e|--------------------------------------------------|
B|--------------------------------------------------|
G|--------------------------------------------------|
D|---------------------6****------------------------|
A|-4****-----6****-----4****------------------------|
E|-2****-----4****----------------------------------| 

Relient K — Pressing On

 Relient К
Anatomy of the Tongue In Cheek
Pressing On
(c)2001 GoTee Records
Thomas(eastcoastpunk66@poppunk.com)

 [-----------------------------]
 [-----------------------------]
 [-----------------------------]
 [---3h4-----3-1---3h4-----3-1-]
 [-4---------------------------]
 [-------4-4-----6-----2-2-----]
   C#    G#      A#    F#

 C#            C#/C
 I think we’re going somewhere,
 A#          F#
 We’re on to something good here,
 C#     C#/C         A#
 Out of mind, Out of state,
           F#
 Trying to keep my head on straight,
 C#          C#/C
 I think we’re going somewhere,
 A#          F#
 We’re on to something good here,
 C#           C#/C              A#
 There's only one thing left to do,
            F#
 Drop all i have and go with you..

Riff1
 [------------------------------]
 [------------------------------]
 [-6-8-8--6-8-8--8-1111--8-1111-]
 [-6-8-8--6-8-8--8-1111--8-1111-]
 [-4/6-6--4/6-6--6/9-9---6/9-9--]
 [------------------------------]
 Somewhere back there,
 I left my worries all behind,
 C#               G#                   [Riff1]
 My problems fell outta the back of my mind,

 We’re going and I'm never knowing,
 C#            G#
 Never knowing where we're going,
    F#                                   G#
 To go back to where i was would just be wrong,
              C#
 I'm pressing on..

 C#       G#      A#               F#           C#
 Pressing on, Our mighty stress is going, going gone,
          G#           A#   F#
 Pressing on, Pressing on,
       C#        G#       A#           F#
 And i wont take back and take this anymore,
           C#        G#
 'Cause im done with that,
       A#               F#
 I got one foot out the door,
        F#                                   G#
 And to go back to where I was would just be wrong,
              C#
 I'm pressing on..

 (Repeat)

 C#  G#  A#  F# (2x)

 (Intro 4x)
 (Goto the last 2 lines of the prechorus)
 (Chorus)

(During this part he's softly picking notes in the C# Scale...mainly g string)
 You looked at me but you don't look down on me at all,
 You smile and laugh I feel the love you have for me,
 I think we're going somewhere,
 And we're on to something good here,
     F#          G#            C#
 And we're gonna make it after all.. 
Аккорд C#Аккорд G#Аккорд A#Аккорд F#Аккорд C#/C

Relient K — Pressing On

 This is all in standard tuning, and pretty fast pased like most punk rock. It's not 
hard at all. In fact, Relient К's bassist doesnt even have the G string on his bass. 
But it's still a sweet song and cool to play. In a couple parts you need to listen
to get the timing, but its still not hard. It uses these same riffs over and over
throughout the song. Enjoy!

Intro Riff
G:----------
D:----------
A:----------
E:----2--4--

G:-----------------------------------------------------------------
D:-----------------------------------------------------------------
A:--4-4-4-4-4-4-4-4------------------------------------------------
E:------------------4-4-4-4-4-4-4-4-6-6-6-6-6-6-6-6-2-2-2-2-2--4---


Verse Riff (I think we're going somewhere...)
G:-------------------------------------------------------------------|
D:-------------------------------------------------------------------|
A:--4-4-4-4-4-4-4-4-3-3-3-3-3-3-3-3----------------------------------|
E:----------------------------------6-6-6-6-6-6-6-6-2-2-2-2-2-2-2-2--|


Pre-Chorus Riff (Somewhere back there I left my worries all behind...)
G:----------------------------------------------------------------------
D:----------------------------------------------------------------------
A:--4-6-6-6-6--4-6-6-6-6------------------------4-----------------------
E:------------------------2-2-2-2-2--2-2-2-2-2--------4--4--4--4--4--4--


The Going Back to Where I Was Would Just Be Wrong Riff.
G:--------------------------------
D:--------------------------------
A:--------------------------------
E:--2-2-2-2-2-2-2-2-4-4-4-4-4-----


Chorus Riff [NOTE: notice how this looks a lot like the intro... thats cause it is]
G:-----------------------------------------------------------------
D:-----------------------------------------------------------------
A:--4-4-4-4-4-4-4-4------------------------------------------------
E:------------------4-4-4-4-4-4-4-4-6-6-6-6-6-6-6-6-2-2-2-2-2--4---


Bass solo/interlude thing/outro (2:52 and goes to the end)
G:---------------------------------------------------------
D:---------------------------------------------------------
A:--4-4--4-4--4-4--4-4--4-4-4-4--4-4--4-4--4-4--4-4-4-4----
E:---------------------------------------------------------

G:-------------------------------------------------------------------
D:-------------------------------------------------------------------
A:--------------------------------------------------4-4-4-4-4-4-4-4--
E:--2-2-2-2-2-2-2-2-4-4-4-4-4-4-4-4-6-6-6-6-6-6-6-6------------------

G:-------------------------------------------------------------------
D:-------------------------------------------------------------------
A:----------------------------------4-4-4-4-4-4-4-4-3-3-3-3-3-3-3-3--
E:--2-2-2-2-2-2-2-2-4-4-4-4-4-4-4-4----------------------------------

G:-------------------------------------------------------------------
D:-------------------------------------------------------------------
A:--------------------------------------------------4-4-4-4-4-4-4-4--
E:--2-2-2-2-2-2-2-2-4-4-4-4-4-4-4-4-6-6-6-6-6-6-6-6------------------

G:------------------------|
D:------------------------|
A:----------------4-------|
E:--2------4--------------| 
Аккорд G

Relient K — Pressing On

 G-------------------------------------------------------
D-----4-4-4-------------1-1-1---------------------------
A--------------4-4-4-------------2-2-2------------------
E-------------------------------------------------------

You just repeat that. 

Relient K — Pressing On

 Artist:Relient К
Song:Pressing On

h=hammer down
/slide
*=palm mute
~=let ring out
Intro-
e---------------------------------
B---------------------------------
G---------------------------------
D-6-3h4------------------3~p2-----
A-4-----66-8~p6-8-6h8-44----------
E-------44------6-----22----------

Verse-
E---------------------------------
B---------------------------------  X3
G-6-66666-6-66666-3-33333---------     Then, on forth time don't 
D-6-66666-6-66666-3-33333-4-44444-     palm mute anything.
A-4-44444-3-33333-1-11111-4-44444-
E-------------------------2-22222-
    *****   *****   *****   *****

Chorus part 1-
E-------------------------------------------------------------
B-------------------------------------------------------------
G-66/888-66/888-10 10/11 11 11-10 10/11 11 11-6-6-6-6---------
D-66/888-66/888-10 10/11 11 11-10 10/11 11 11-x-x-x-x-6-6-6-6- X2 
A-44/666-44/666- 8  8/ 9  9  9- 8  8/ 9  9  9-4-4-4-4-6-6-6-6- 
E-----------------------------------------------------4-4-4-4-
                  and after second time you go...
E---------------
B---------------
G---------------
D-4-4-4-4-6-6-6-
A-4-4-4-4-6-6-6-     PAUSE
E-2-2-2-2-4-4-4-  

Chorus-

E-------------------      --------------
B-------------------      --------------
G-666---------------      --------------
D-666-6666-888-4444-   X4 -444444/666~~~~~
A-444-6666-888-4444-      -444444/666~~~~~
E-----4444-666-2222-      -222222/444~~~~~

Slow Part
E-----------------------------------------------------------------
B-----------------------------------------------------------------
G-6---6---6---6---5---5---5---5---6---6---6---6---8---8---8---5---
D---6---6---6---6---6---6---6---6---6---6---6---6---6---6---6---6-
A-----------------------------------------------------------------
E-----------------------------------------------------------------

Ending-
E-------------------
B-------------------
G---------6~~~~~~~~-
D-4~~-6~~-6~~~~~~~~-
A-4~~-6~~-4~~~~~~~~-
E-2~~-4~~-----------


Order of song:
Intro X4
Verse X4
Chorus Part 1 X2
Chorus X4
Verse X4 
Chorus Part 1 X2
Chorus X4
Chorus X2
Intro X4
Part after chorus X1
PAUSE
Chorus SLOW X2
Chorus X2
Slow Part X3
Ending X1 
Аккорд G-66Аккорд D-66Аккорд A-44

Relient K — Pressing On

 this may have some resemblance to other tabs but the other tabs are either wrong or dont
sound right. My band covers this song and its exactly the same sound as these tabs.
*Note: I saw Relient К twice in concert and they tune differently so that the fingerings
are easier but these tabs are easy enough. Rhythms aren't written out but by listening
to the song and looking at the tabs you'll get it right!

tabbed by: Splinter of the Cross

Standard Tuning (Dropped D if your lazy)
~  = Palm Mute
/  = Slide
*  = Let Ring
(#)= Alternate fingering

Intro

Guitar 1
  *Play this 4 times
e---------------------------------------------------
B---------------------------------------------------
G-(6)-----------------------------------------------
D--6----(66)----(8)---(44)--------------------------
A--4-6-8-66-8-6--8-6-8-44-8-6-----------------------
E--------44------6-----22---------------------------

Guitar 2 
  *Starts after Guitar 1 plays intro 1 time
  *Play this 3 times
e---------------------------------------------------
B---------------------------------------------------
G---------------------------------------------------
D--6------------------------------------------------
A--4----6----8----4---------------------------------
E-------4----6----2---------------------------------

Verse

Guitar 1 & Guitar 2 (Play at same time)
  *Play this 3 times
e---------------------------------------------------
B---------------------------------------------------
G---------------------------------------------------
D--6~~~~--------------------------------------------
A--4~~~~6~~~~8~~~~4~~~~-----------------------------
E-------4~~~~6~~~~2~~~~-----------------------------

Guitar 1 
  *Play this 1 time
e---------------------------------------------------
B---------------------------------------------------
G---------------------------------------------------
D--6-6-6-6------------------------------------------
A--4-4-4-4-6-6-6-6-8-8-8-8-4-4-4-4------------------
E----------4-4-4-4-6-6-6-6-2-2-2-2------------------

Guitar 2 
  *Play this 1 time with a combination of upstrokes and downstrokes
e---------------------------------------------------
B---------------------------------------------------
G---------------------------------------------------
D--66666666-----------------------------------------
A--44444444666666668888888844444444-----------------
E----------444444446666666622222222-----------------

Guitar 1
  *Play this 1 time while Guitar 2 rests
e---------------------------------------------------
B---------------------------------------------------
G--6/8-8--6/8-8--8/10-10--8/10-10-------------------
D--6/8-8--6/8-8--8/10-10--8/10-10-------------------
A--4/6-6--4/6-6--6/-8--8--6/-8--8-------------------
E---------------------------------------------------

Guitar 2 
  *Rests as Guitar 1 plays the tab above

Guitar 1
  *Play this 1 time
e---------------------------------------------------
B---------------------------------------------------
G-------------------6/8-8--6/8-8--8/10-10--8/10-10--
D--6-6-6-6----------6/8-8--6/8-8--8/10-10--8/10-10--
A--4-4-4-4-6-6-6-6--4/6-6--4/6-6--6/-8--8--6/-8--8--
E----------4-4-4-4----------------------------------

Guitar 2
  *Play this 1 time 
e---------------------------------------------------
B---------------------------------------------------
G---------------------------------------------------
D--6-6-6-6------------------------------------------
A--4-4-4-4-6-6-6-6-8-8-8-8-4-4-4-4------------------
E----------4-4-4-4-6-6-6-6-2-2-2-2------------------

Guitar 1 & Guitar 2 (Play at same time)
  *Play this 1 time
e---------------------------------------------------
B---------------------------------------------------
G---------------------------------------------------
D--6-6-6-6------------------------------------------
A--4-4-4-4-6-6-6-6-4-4-4-4-6-6-6--------------------
E----------4-4-4-4-2-2-2-2-4-4-4--------------------

Chorus

Guitar 1 & Guitar 2 (Add Variation of similar rythm if you want)
  *Play this 3 times
e---------------------------------------------------
B---------------------------------------------------
G---------------------------------------------------
D--6-6----------------------------------------------
A--4-4-6-6-6-6-8-8-4-4-4-4--------------------------
E------4-4-4-4-6-6-2-2-2-2--------------------------

Guitar 1 & Guitar 2 (Play at same time)
  *Play this 1 time
e---------------------------------------------------
B---------------------------------------------------
G---------------------------------------------------
D---------------------------------------------------
A--4-4-4-4-6-6-6------------------------------------
E--2-2-2-2-4-4-4------------------------------------

Verse

Guitar 1 & Guitar 2 (Play at same time)
  *Play this 3 times
e---------------------------------------------------
B---------------------------------------------------
G---------------------------------------------------
D--6~~~~--------------------------------------------
A--4~~~~6~~~~8~~~~4~~~~-----------------------------
E-------4~~~~6~~~~2~~~~-----------------------------

Guitar 1 
  *Play this 1 time
e---------------------------------------------------
B---------------------------------------------------
G---------------------------------------------------
D--6-6-6-6------------------------------------------
A--4-4-4-4-6-6-6-6-8-8-8-8-4-4-4-4------------------
E----------4-4-4-4-6-6-6-6-2-2-2-2------------------

Guitar 2 
  *Play this 1 time with a combination of upstrokes and downstrokes
e---------------------------------------------------
B---------------------------------------------------
G---------------------------------------------------
D--66666666-----------------------------------------
A--44444444666666668888888844444444-----------------
E----------444444446666666622222222-----------------

Guitar 1
  *Play this 1 time while Guitar 2 rests
e---------------------------------------------------
B---------------------------------------------------
G--6/8-8--6/8-8--8/10-10--8/10-10-------------------
D--6/8-8--6/8-8--8/10-10--8/10-10-------------------
A--4/6-6--4/6-6--6/-8--8--6/-8--8-------------------
E---------------------------------------------------

Guitar 2 
  *Rests as Guitar 1 plays the tab above

Guitar 1
  *Play this 1 time
e---------------------------------------------------
B---------------------------------------------------
G-------------------6/8-8--6/8-8--8/10-10--8/10-10--
D--6-6-6-6----------6/8-8--6/8-8--8/10-10--8/10-10--
A--4-4-4-4-6-6-6-6--4/6-6--4/6-6--6/-8--8--6/-8--8--
E----------4-4-4-4----------------------------------

Guitar 2
  *Play this 1 time 
e---------------------------------------------------
B---------------------------------------------------
G---------------------------------------------------
D--6-6-6-6------------------------------------------
A--4-4-4-4-6-6-6-6-8-8-8-8-4-4-4-4------------------
E----------4-4-4-4-6-6-6-6-2-2-2-2------------------

Guitar 1 & Guitar 2 (Play at same time)
  *Play this 1 time
e---------------------------------------------------
B---------------------------------------------------
G---------------------------------------------------
D--6-6-6-6------------------------------------------
A--4-4-4-4-6-6-6-6-4-4-4-4-6-6-6--------------------
E----------4-4-4-4-2-2-2-2-4-4-4--------------------

Chorus

Guitar 1 & Guitar 2 (Add Variation of similar rythm if you want)
  *Play this 3 times
e---------------------------------------------------
B---------------------------------------------------
G---------------------------------------------------
D--6-6----------------------------------------------
A--4-4-6-6-6-6-8-8-4-4-4-4--------------------------
E------4-4-4-4-6-6-2-2-2-2--------------------------

Guitar 1 & Guitar 2 (Play at same time)
  *Play this 1 time
e---------------------------------------------------
B---------------------------------------------------
G---------------------------------------------------
D---------------------------------------------------
A--4-4-4-4-6-6-6------------------------------------
E--2-2-2-2-4-4-4------------------------------------

Guitar 1 & Guitar 2 (Play at same time)
  *Play this 1 time
e---------------------------------------------------
B---------------------------------------------------
G---------------------------------------------------
D--6-6----------------------------------------------
A--4-4-6-6-6-6-8-8-4-4-4-4--------------------------
E------4-4-4-4-6-6-2-2-2-2--------------------------

Guitar 1 & Guitar 2 (Play at same time)
  *Play this 1 time
e---------------------------------------------------
B---------------------------------------------------
G---------------------------------------------------
D--6-6----------------------------------------------
A--4-4-6-6-6-6-8-8-4--------------------------------
E------4-4-4-4-6-6-2--------------------------------

Intro

Guitar 1
  *Play this 4 times
e---------------------------------------------------
B---------------------------------------------------
G-(6)-----------------------------------------------
D--6----(66)----(8)---(44)--------------------------
A--4-6-8-66-8-6--8-6-8-44-8-6-----------------------
E--------44------6-----22---------------------------

Guitar 2 
  *Starts after Guitar 1 plays 1/2 time (at the chord 8-8-6)
  *Play this 3 times ()= Play only first half
e---------------------------------------------------
B---------------------------------------------------
G---------------------------------------------------
D--(8----4)----6------------------------------------
A--(6----2)----4----6----8----4---------------------
E-------------------4----6----2---------------------

Guitar 1 & Guitar 2 (Play at same time)
  *Play this 1 time
e---------------------------------------------------
B---------------------------------------------------
G---------------------------------------------------
D--6****--------------------------------------------
A--4****-6****--4-4-4-4-6-6-6-----------------------
E--------4****--2-2-2-2-4-4-4-----------------------

Guitar 1 & Guitar 2 (Play at same time)
  *Play this 4 times
e---------------------------------------------------
B---------------------------------------------------
G---------------------------------------------------
D--6-6----------------------------------------------
A--4-4-6-6-6-6-8-8-4-4-4-4--------------------------
E------4-4-4-4-6-6-2-2-2-2--------------------------

Guitar 1 & Guitar 2 (Play same time)
  *Play this 1 time
e---------------------------------------------------
B---------------------------------------------------
G---------------------------------------------------
D-------------------6****---------------------------
A--4-4-4-4-6-6-6----4****---------------------------
E--2-2-2-2-4-4-4------------------------------------

Interlude (Ending; Slow Part)

Guitar 1 (& Guitar 2 if you want)
*Play this 1 time 
e---------------------------------------------------
B--6-6-6-6--6-6-6-6--6-6-6-5--8-8-8-5---------------
G---------------------------------------------------
D---------------------------------------------------
A---------------------------------------------------
E---------------------------------------------------

Guitar 1 (& Guitar 2 if you want)
  *Play this 1 time
e---------------------------------------------------
B--6-6-6-5--6-6-6-5--6-6-6-6--6-6-6-6---------------
G---------------------------------------------------
D---------------------------------------------------
A---------------------------------------------------
E---------------------------------------------------

Guitar 1 (& Guitar 2 if you want)
  *Play this 1 time
e---------------------------------------------------
B--6-6-6-5--6-6-6-5--6-6-6-5--8-8-8-5---------------
G---------------------------------------------------
D---------------------------------------------------
A---------------------------------------------------
E---------------------------------------------------

Guitar 1 & Guitar 2 (Play at same time)
  *Play this 1 time
e---------------------------------------------------
B---------------------------------------------------
G---------------------------------------------------
D----------------------6****------------------------
A--8****-----6****-----4****------------------------
E--6****-----4****----------------------------------

Well thats it the end.
* Note: this is how my band plays it and it sounds the same so we don't really know
if its the right tabs but nothing else is closer than these tabs and nothing else sounds
the same as these tabs except the origianl Relient К tabs.

You can contact us at:
HybridAesthetic@aol.com, till the website is up and running 
Аккорд DАккорд G--6Аккорд D--6Аккорд A--4