Портал для гитаристов
gtars.ru

Relient K — Sadie Hawkins Dance

 This song is defidently one of Relient К's greatest, and i hope 
they continue to rock the house just like they have on theyre past 2 
albums. Rock on

Tuning - Drop D (Low E to D for you newbie guitarrists)

 - This doesnt show rythms so listen to the song when you get a chance.

Intro

Guitar 1
e-1-3-5-1-3-6-1-3-6-
b-------------------
g-------------------
D-------------------
A-------------------
D-------------------

Guitar 2
e-------------------
b-3-4-6-3-4-6-3-4-6-
g-------------------
D-------------------
A-------------------
D-------------------

Guitar 1 continues lick through Verses

Verse
e-------------------------------
b-------------------------------
g-------------8---------------8-
D-8---3---5---8---8---3---5---8-
A-8---3---5---6---8---3---5---6-
D-8---3---5-------8---3---5-----

*Chorus is the exact same as the Verses, except for the palm mutes. For 
the highest chord, Younger guys can use the 13th fret on the DAD strings 
instead of gDA if it is easier.

Duet

Guitar 1
Let ring throughout
e-111-333-666-111-333-666-111-333-666-666-333-1-
b-----------------------------------------------
g-----------------------------------------------
D-----------------------------------------------
A-----------------------------------------------
D-----------------------------------------------

Guitar 2
Let ring throughout
e-----------------------------------------------
b-333-444-666-333-444-666-333-444-666-666-444---
g---------------------------------------------3-
D-----------------------------------------------
A-----------------------------------------------
D-----------------------------------------------

Bridge
e-------------------
b-------------------
g-------------------
D-11111111-3333-3-3-
A-11111111-3333-3-3-
D-11111111-3333-3-3-

Chorus

Fine
e----------
b----------
g-8--------
D-8---8----
A-6---8----
D-----8----

Aight post or email me with any corrections or comments. Later guys
guitarsandbaseball@juno.com 
Аккорд DАккорд EАккорд DADАккорд D-8---8----Аккорд A-6---8----Аккорд D-----8----