Портал для гитаристов
gtars.ru

Relient K — Softer To Me

 e:----------------------------------------------------------
B:----------------------------------------------------------
G:---556555655---5--5-------8-------------------------------
D:------------66-66---668666-6-55655565---------------------
A:----------------------------------------------------------
E:----------------------------------------------------------
 
This is the corrected intro, which is also played various other
times throughout the song.  Enjoy and God Bless! 

Relient K — Softer To Me

 Intro: x4

Riff 1
e|------------------------------------------------------------|
B|------------------------------------------------------------|
G|--5-5-6-5--5-5-6-5---5-----5----------------7---------------|
D|-----------------------666---666--66-7-6-66----55-66-55-6---|
A|------------------------------------------------------------| 
E|------------------------------------------------------------|

Chords For Verses

     F             C#              G#              D#

e|------------------------------------------------------------
B|------------------------------------------------------------|
G|------------------6-------------------------------8---------|
D|-3----------------6---------------6---------------8---------|
A|-3----------------4---------------6---------------6---------|
E|-1--------------------------------4-------------------------|


For the Chorus just pick the chords above

During the last six measure of the song repeat Riff 1

Don't have the lyrics yet sorry

Good Luck And Have Fun This Is An Awesome Song!!!!!!!!!1 
Аккорд FАккорд C#Аккорд G#Аккорд D#

Relient K — Softer To Me

 Band-Relient К
Song-Softer To Me

All of the tabs for the main riff have been close, but not quite right...So this my version....

E-------------------------------------------
B-----------------------------------0010-001*
G-5565-5565--5----5------------7------------
D----------66-6-66-6----5565-55-5-----------
A-------------------------------------------
E-------------------------------------------

                *=HOLD ON LAST NOTE
I broke down the beats for you to make it easy for ya, hope this helps... 

Relient K — Softer To Me

 hey wut^ this is an awesome song by an awesome band and i hope
u like my tab on it IT IS RIGHT (except for maybe the chorus)

              Intro*

E ----------------------------------------
B ----------------------------------------
G 556555655---5---------8----------------- X4
D ---------666-666667666-5565556----------    
A ----------------------------------------
E ----------------------------------------

              Verse
              
E ----------------------------------------
B ----------------------------------------
G -----666-----------88888888-------------
D 333--666--66666666-88888888-------------
A 333--444--66666666-66666666-------------
E 111-------44444444---------------------- 

              Verse

E ----------------------------------------
B ----------------------------------------
G ---------66666666----------88888888-----
D 33333333-66666666-66666666-88888888----- X2
A 33333333-44444444-66666666-66666666-----
E 11111111----------44444444--------------

            Pre-Chorus

E ----------------------------------------
B ----------------------------------------
G -----------6----------------------------
D ---3------6------6---5x5x5x5x5x5x5x5x/3-
A --3------4------6----5x5x5x5x5x5x5x5x/3-
E -1-------------4-----3x3x3x3x3x3x3x3x/1-

              Chorus
E ----------------------------------------
B ----------------------------------------
G ---1----6-6---5-6-6--------------------- (it varies how many times 
D --3-3--6------6-6-6---5-6-5-5-6---------       you play it)
A -3----4------6--------------------------
E 1-----------4--------3------------------
              
        Little solo thingy
E -------------------------------------------------
B -------------------------------------------------
G -13-13-13-13-13-13-13-13/15-15-15-15-15-15-15-15-
D --x--x--x--x--x--x--x--x/-x--x--x--x--x--x--x--x-
A -11-11-11-11-11-11-11-11/13-13-13-13-13-13-13-13-
E -------------------------------------------------

E -------------------------------------------------
B -------------------------------------------------
G /17-17-17-17-17-17-17-17/12-12/13/12-12-12/13----
D /-x--x--x--x--x--x--x--x/-x--x/-x/-x--x--x/-x----
A /15-15-15-15-15-15-15-15/10-10/11/10-10-10/11----
E -------------------------------------------------

* rythm guitar play the verse part on the intro.

Ok thats it listen to the song to get the rythms. 
Аккорд EАккорд BАккорд GАккорд DАккорд A

Relient K — Softer To Me

 Title: Softer To Me
Artist: Relient К
Album: Relient К

Instrument: 4 String Bass

Tabbed by: Joe Кооrs (bucketokoors@yahoo.com)

Tuning: Standard (E A D G)

Previous tabs: Sadie Hawkens Dance

verse
G|-------------------------------------------------------------------||
D|-------------------------------------------------------------------||
A|-----------------------33333-------55555---55-33-------------------||
E|1----------------11111-------33333---------------33--11------------||

Chorus
G|-------------------------------------------------------------------||
D|-------------------------------------------------------------------||
A|-----353-5-5-------------------------------------------------------||
E|1 ------3-3--------------------------------------------------------||

Slow part play verse but slower 
Аккорд EАккорд AАккорд DАккорд G

Relient K — Softer To Me

 e:----------------------------------------------------------
B:----------------------------------------------------------
G:---556555655---5------------------------------------------
D:------------666-666---778777877555655---------------------
A:----------------------------------------------------------
E:---------------------------------------------------------- 

Relient K — Softer To Me

 e:---------------------------------------------T------------
B:---------------------------------------------I------------
G:---556555655---5--------------------------