Портал для гитаристов
gtars.ru

Relient K — When Youre Around

 When your around - Reliant К
Reliant К First self titled CD
By:Jeffrey Womack
Intro:
e|---------------------------------------------------------------------------|
B|---------------------------------------------------------------------------|
G|---------------------13----------------------------------------------------|
D|--5------------------13----------------------------------------------------|
A|--3---5-------7------11----------------------------------------------------|
E|------3-------9------------------------------------------------------------|
Verses
e|---------------------------------------------------------------------------|
B|---------------------------------------------------------------------------|
G|---------------------------9------13---------------------------------------|
D|---5xxxxxx-----------------9------13--------repeat a few times-------------|
A|---3xxxxxx---5xxxxxxx------7------11---------------------------------------|
E|-------------3xxxxxxx------------------------------------------------------|
Chorus
e|---------------------------------------------------------------------------|
B|---------------------------------------------------------------------------|
G|---------------------------------------------------------------------------|
D|----5----------------------------------------------------------------------|
A|----3---5-5-----5--5--5----------------------------------------------------|
E|--------3-3-----7--7--7----------------------------------------------------|
Post Chorus
e|-----------------------------Guitar 2 -------------------------------------|
B|---------------------------------9-9-9-9-9-9-13-13-13-13-13-13-------------|
G|---------------------------------7-7-7-7-7-7-11-11-11-11-11-11-------------|
D|---5-5-5-5-5-5-------------------5-5-5-5-5-5-------------------------------|
A|---3-3-3-3-3-3----5-5-5-5-5-5----3-3-3-3-3-3--5--5--5--5--5--5-------------|
E|------------------3-3-3-3-3-3-----------------3-3-3-3-3-3------------------| 
Аккорд CD

Relient K — When Youre Around

 SONG: WHEN YOU'RE AROUND
ARTIST: RELIENT К
ALBUM: RELIENT К
TABBED BY: TEDDY
GZUZ012188@AOL.COM

intro

G|55555555-00000000------------------
D|-----------------------------------
A|-----------------------------------
E|------------------00000000-44444444

verse
G|-----------000000-454------------------
D|---------------------------------------
A|333333---------------------------------	X2
E|-------3-1------------00000000-11111111

chorus
G|----0-2--
D|---------
A|3--------	x6
E|--0-----1


G|----000-222----
D|---------------	x4
A|333------------
E|------------111

guitar riff
G|---------------------111111
D|---------------------------	x4
A|333333---------------------
E|-------000000-111111-------