Портал для гитаристов
gtars.ru

Rembrandts — Ill Be There For You

 This Song is Tabbed by Marcus Teo !!!

Hi all Marcus here this is the 1st song i try to tab!!! hmm it is somehow familiar 
with the original hope u haf fun with it ! Try it out and if there is ani problems 
email me at marcteo50@hotmail.com
_____________________________________________________________________________________
Intro:
(Played 4 times)

b = bend up
p = pull off
s = slide
h = hammer
E------------------------------------
B----0s2-h2s0-----------------------
G-------------2-0-0-2-2h4-2----------
D------------------------------------
A--0---------------------------------
E------------------------------------
 (BASS GUITAR PART AFTER THE LAST TIME ОF SОLО)
 
G-----------
D--h2-5h2---
A-----------
E-----------

A					  G
So no one told you life was gonna be this way
A						      C#m
Your job's a joke, you're broke, your love life's D.О.A.
G	         Bm		 A
It's like you're always stuck in second gear
	G		 D		      E
When it hasn't been your day, your week, your month, or even your year but

(Chorus)

A       D	   E
I'll be there for you (When the rain starts to pour)
A       D	   E
I'll be there for you (Like I've been there before)
A       D	   E				  G
I'll be there for you ('Cause you're there for me too)

(Fill 1: Played at the end of each of the first two lines of the chorus)

E--0-0--------0--0-0-0-0-0----------
B------3-0----------------3-2-0------
G------------------------------2----
D----------------------------------
A----------------------------------
E----------------------------------


(Fill 2: Played on the G chord at the end of the chorus)

E------------------------
B--0--0---0--1--0-----0--
G-------2----------2-----
D------------------------
A------------------------
E------------------------

A					     G
You're still in bed at ten and work began at eight
A						   C#m
You burned your breakfast so far, things are going great
G	    Bm			  A
Your mother warned you there'd be days like these
	G		D		   E
But she didn't tell you when the world has brought you down to your knees that

(Chorus)

A       D	   E
I'll be there for you (When the rain starts to pour)
A       D	   E
I'll be there for you (Like I've been there before)
A       D	   E				  G       A 
I'll be there for you ('Cause you're there for me too)         

(played at the A chord after the G chord solo)
E--------------------------
B--------------------------
G---------------2---2--2---
D-------------2---2-------
A----0-2----2---2-----2----
E--------------------------

D
No one could ever know me
D
No one could ever see me
F#m
Sometime the only one who knows what its like to be me
Bm			      Bm7
Someone to face the day with, make it through all the mess with
G	     D                  E	       D	 E	  F#m
Someone I'll always laugh with, even under the worst I'm best with you

(Solo: Starts when the word 'you' is sung)



   F#m	     Bm		Esus  E	       	       A     D    E
E-----------------------------------------------------------
B--2-2-2-2-2-2-2-2-2-2--0-0---0--0---0----0-s2----2--0------
G--------------------------------------2---------------2--1-
D---------------------------------------------2-s4----------A-----------------------------------------------------------
E-----------------------------------------------------------

	       F#m           Bm        Esus      E		  A
E---------------------------------------------------------
B-------------------------------------------------------
G-------------------------------------------------------
D--4--2-----------------------------------------------------
A--------4--2--4-4-4-4-4-4-4-4------0-s4--2--2--------------
E------------------------------2-2--------------------------

E-----------------------
B-----------------0-----
G-2-2-2--1-1-1--2---2--
D-----------------------
A----------------------- 
E----------------------
      D       E
E------------------------0--2--5--7------------------------
B---------------0--2--3------------------------------------
G-----2-----2-----------------------------------------------
D--2-----0--------------------------------------------------
A-----------------------------------------------------------
E-----------------------------------------------------------

G	         Bm		 A
It's like you're always stuck in second gear
	G		 D		      E    (play out the E longer)
When it hasn't been your day, your week, your month, or even your year but

(Chorus)

A       D	   E
I'll be there for you (When the rain starts to pour)
A       D	   E
I'll be there for you (Like I've been there before)
A       D	   E				  G
I'll be there for you ('Cause you're there for me too)

Note: Don't play Fill 2 here

(Chorus again)

(Fill 3: Play while singing 'I'll be there for you' - only on last chorus)

E------------------------
B------------------------
G------------------------
D------------------------
A--4-------0-s4--2-------
E-----2--2---------------

A       D	   E
I'll be there for you
A       D	   E
I'll be there for you
A       D	   E				  G    A
I'll be there for you ('Cause you're there for me too) 
Аккорд FАккорд G-----------Аккорд A-----------Аккорд E-----------Аккорд AАккорд GАккорд C#mАккорд DАккорд BmАккорд EАккорд F#mАккорд Bm7Аккорд Esus

Rembrandts — Ill Be There For You

 I'll be there for you
Standard Tuning

Intro
---------------------------------------------------
---------------------------------------------------
------5/6-5/64--2-0-0-2-2/4-2---------------------  x4
---------------------------------------------------
----0----------------------------------------------
---------------------------------------------------

Verse
A                                          G
So no one told you life was gonna be this way
A                                                      C#m
Your job's a joke you're broke your love life's D.О.A.
G               Bm               A
It's like you're always stuck in second gear
        G               D                     E
When it hasn't been your day, your week, your month, or even your year

Chorus
   A         D           E
But, I'll be there for you (When the rain starts to pour)
---------------------------------------------------
--4/5—-5-3—0-—4/5--5--5--5--3--0------------------
----------------------------------2----------------
---------------------------------------------------
---------------------------------------------------
---------------------------------------------------
A       D           E
I'll be there for you (Like I've been there before)
---------------------------------------------------
--4/5—-5-3—0-—4/5--5--5--5--3--0------------------
----------------------------------2----------------
---------------------------------------------------
---------------------------------------------------
---------------------------------------------------
A       D           E                             G
I'll be there for you ('Cause you're there for me too)
---------------------------------------------------
-----------------0h1-------------------------------
---2/4—2/4—2--4-------4-2-4--2-2-------------------
---------------------------------------------------
---------------------------------------------------
---------------------------------------------------

A                                           G
You're still in bed at 10 and work began at 8
A                                                   C#m
You burned your breakfast so far, things are going great
G             Bm                 A
Your mother warned you there'd be days like these
---------------------------------------------------
---------------------------------------------------
--------------2-------2----------------------------
-----------2-------2-------------------------------
--0--2--4-------4-------0--2-----------------------
---------------------------------------------------

          G              D                          E
But she didn't tell you when the world has brought you down to your knees

СНОRUS

---------------------------------------------------
---------------------------------------------------
--------------2-------2----2-----------------------
-----------2-------2-------------------------------
--0--2--4-------4-------0--------------------------
---------------------------------------------------
D
No one could ever know me No one could ever see me
---------------------------------------------------
-----------3----5----------------3----5-----3------
-----2---------------2-------2-----------------2---
4------------------------4-------------------------
---------------------------------------------------
---------------------------------------------------
F#m
Sometimes the only one who knows what its like to be me
---------------------------------------------------
---------------------------------------------------
-----------2----4----2-------------2----4----2-----
------4-----------------4------4-----------------4-
---------------------------------------------------
--2------------------------2-----------------------
Bm                          A
Someone to face the day with, make it through all the mess with
---------------------------------------------------
---------0----3----0------------0----3----0--------
---------------------------------------------------
------4--------------4-------4---------------4-----
-2-----------------------0-------------------------
---------------------------------------------------
G                               E              D         E         F#m
Someone I'll always laugh with, even under the worst I'm best with you
---------------------------------------------------
---------------------------------------------------
----------4-----------2----------1-----------------
-------5-----------4----------2--------------------
----5-----------5----------2-----------------------
-3-----------2----------0--------------------------

-----------------------------------------0------0--
-----------------------------------------2------2--
---5/6-6-6-6-6-6-6-6-6--2---2—4/6-4-4---2----2----
---------------------------4-------------2--2------
---------------------------------------------------
---------------------------------------------------

--------------------------0-----0-----0-----0------
----------------------------0-----0-----0-----0----
-2--4—4/6-------4/6--4--------2-----1--------------
----------2--4----------------------------6--------
---------------------------------------------------
---------------------------------------------------

---------------------------------------------------
---------------------------------------------------
---------------------------------------------------
---------------------------------------------------
--2/4-4-4-4-4-4-4-4-4--0-----0—-2/4--2--2---------
---------------------------2-----------------------

---------------------------------------------------
----------------------------------2/3--3-----------
-1/2--2--2--1--1---2--4--2-----2-------------------
----------------------------2----------------------
---------------------------------------------------
---------------------------------------------------


---------------------------------------------------
---------------7--10-------------------------------
---4--6--7--9--------------------------------------
--------------------------------------------------- 
---------------------------------------------------  
---------------------------------------------------  | 
                                                     | same time(2gtrs) 
                                                     | 
----------0----|-----------------------------------  | 
----------0----|-----------------------------------  /
------4--------|-x4-------------------------------- /
---6-----------|-----------------------------------/
---------------|-----------------------------------
---------------|-----------------------------------

G               Bm               A
It's like you're always stuck in second gear
---------------------------------------------------
---------------------------------------------------
--------------2-------2----------------------------
-----------2-------2-------------------------------
--0--2--4-------4-------0--2-----------------------
---------------------------------------------------
        G                  D                    E
When it hasn't been your day, your week, your month, or even your year

A         D           E
But, I'll be there for you (When the rain starts to pour)
---------------------------------------------------
--4/5—-5-3—0-—4/5--5--5--5--3--0------------------
----------------------------------2----------------
---------------------------------------------------
---------------------------------------------------
---------------------------------------------------
A       D           E
I'll be there for you (Like I've been there before)
---------------------------------------------------
--4/5—-5-3—0-—4/5--5--5--5--3--0------------------
----------------------------------2----------------
---------------------------------------------------
---------------------------------------------------
---------------------------------------------------
A       D           E                             G
I'll be there for you ('Cause you're there for me too)
---------------------------------------------------
---4/5--5--3—0--4/5--5--5--5--3--0-----------------
---------------------------------------------------
---------------------------------------------------
---------------------------------------------------
---------------------------------------------------

A         D           E
But, I'll be there for you (When the rain starts to pour)
---------------------------------------------------
---1/2-------1/2--0--------------------------------
---------------------------------------------------
-------2--4----------------------------------------
---------------------------------------------------
---------------------------------------------------

---------------------------------------------------
--4/5—-5-3—0-—4/5--5--5--5--3--0------------------
----------------------------------2----------------
---------------------------------------------------
---------------------------------------------------
---------------------------------------------------
A       D           E
I'll be there for you (Like I've been there before)
---------------------------------------------------
--4/5—-5-3—0-—4/5--5--5--5--3--0------------------
----------------------------------2----------------
---------------------------------------------------
---------------------------------------------------
---------------------------------------------------
A       D           E                             G
I'll be there for you ('Cause you're there for me too)
---------------------------------------------------
-----------------0h1-------------------------------
---2/4—2/4—2--4-------4-2-4--2-2-------------------
---------------------------------------------------
---------------------------------------------------
---------------------------------------------------

great song
peace 
Аккорд AАккорд GАккорд C#mАккорд DАккорд BmАккорд EАккорд F#m

Rembrandts — Ill Be There For You

 The Rembrand, I'll be there for you (friend theme).
Tabbed by Raimonno,daffery@tiscaline.it.
  
Artist: The Rembrand

Song:   I'll be there for you (friend theme)
Tabbed by: Raimonno
--------------------------------------------------------------
I'm not sure about this song but sound pretty, so let's try!
--------------------------------------------------------------

C                            F            G                                               
So no one told you life was gonna be this way
C                                      F              G       
Your job's a joke, you're broke, your love life's D.О.A.
F                                G
It's like you're always stuck in second gear
F                                               G
When it hasn't been your day, your week, your month, or even your year but

(Chorus):

C       F          G                            C
I'll be there for you (When the rain starts to pour)
C       F          G                          C
I'll be there for you (Like I've been there before)
C       F          G                              G          F     C
I'll be there for you ('Cause you're there for me tooooooooooo)


E--------------------------
B--0--0---0--1--0-----0----
G-------2----------2-----2-
D--------------------------
A--------------------------
E--------------------------

(SAME СНОRDS)                                
You're still in bed at ten and work began at eight
You burned your breakfast so far, things are going great
Your mother warned you there'd be days like these
But she didn't tell you when the world has brought you down to your knees that

(Chorus)
F
No one could ever know me
F
No one could ever see me
Am
Sometime the only one who knows what its like to be me
Fm                            
Someone to face the day with, make it through all the mess with
F#                            G#                                    C#        F
Someone I'll always laugh with, even under the worst I'm best with youuuuuuuuuu
-----------------
INSTRUMENTAL PART
-----------------
F                                G
It's like you're always stuck in second gear
        F                                     F                   G
When it hasn't been your day, your week, your month, or even your year but

(Chorus) X2

E--------------------------
B--0--0---0--1--0-----0----
G-------2----------2-----2-
D--------------------------
A--------------------------
E--------------------------

 
:: Ultimate Guitar Archive :: 
http://www.ultimate-guitar.com 



 
Аккорд CАккорд FАккорд GАккорд DАккорд AАккорд AmАккорд FmАккорд F#Аккорд G#Аккорд C#