Портал для гитаристов
gtars.ru

Renaud — Mistral Gagnant

   Bm Em A G Bm Em F# Bm
E||-----------7-----7-|-----5----------|-----------9-----9-|-----10----9----7-| 
B||--------3----------|----------5-----|--------5----------|------------------| 
G||-----4-------------|----------------|-----6-------------|------------------| 
D||-------------------|----------------|-------------------|------------------| 
A||-------------------|----------------|-------------------|------------------| 
E||-------------------|----------------|-------------------|------------------| 
 
----------10----10-|-----12-----------|-----------9----9-|-----6-----7-----|---10-------| 
-------7-----------|------------------|--------8--7------|-----------------|---7--------| 
-------------------|-----------12-----|-----9------------|--------6--7-----|------------| 
-------------------|------------------|------------------|-----------------|------------| 
-------------------|------------------|------------------|-----------------|------------| 
-------------------|------------------|------------------|-----------------|------------| 
 
Bm 
A m'asseoir sur un banc cinq minutes avec toi 
Em  
Et regarder les gens tant qu'y en a 
A 
Te parler du bon temps qu'est mort ou qui r'viendra 
D
En serrant dans ma main tes p'tits doigts 
Bm 
Pis donner à bouffer à des pigeons idiots 
Em
Leur filer des coups d' pieds pour de faux
A 
Et entendre ton rire qui lézarde les murs 
D
Qui sait surtout guérir mes blessures
G F#
Te raconter un peu comment j'étais mino
Bm
Les bonbecs fabuleux 
G  F#
Qu'on piquait chez l' marchand, car en sac et Mintho,
Bm  A
Caramel à un franc 
G
Et les mistral gagnants G  
 
A marcher sous la pluie cinq minutes avec toi 
Et regarder la vie tant qu'y en a 
Te raconter la Terre en te bouffant des yeux 
Et parler de ta mère un p'tit peu 
Et sauter dans les flaques pour la faire râler 
Bousiller nos godasses et s' marrer 
Et entendre ton rire comme on entend la mer 
S'arrêter repartir en arrière 
Te raconter surtout les carambars d'antan, les cocos boërs 
Et les vrais roudoudous qui nous coupaient les lèvres 
Et nous niquaient les dents 
Et les mistral gagnants 
 
А m'asseoir sur un banc cinq minutes avec toi 
Regarder le soleil qui s'en va 
Te parler du bon temps qu'est mort et je m'en fou 
Te dire que les méchants c'est pas nous 
Que si moi je suis barge, ce n'est que de tes yeux 
Car ils ont l'avantage d'être deux 
Et entendre ton rire s'envoler aussi haut 
Que s'envolent les cris des oiseaux 
Te raconter enfin qu'il faut aimer la vie 
Et l'aimer même si le temps est assassin 
Et emporte avec lui le rire des enfants 
Et les mistral gagnants 
Et les mistral gagnants. 
Аккорд BmАккорд EmАккорд AАккорд GАккорд F#Аккорд D