Портал для гитаристов
gtars.ru

Reset — Double Cross

 -------------------------------------------------------------------------------
		        DOUBLE CROSS - Reset
-------------------------------------------------------------------------------
By:Fr?d?ric Hamel (http://derfpunk.multimania.com)

 h=harmonic

 Intro + solo
               h h h             h h h h
e|---------------------------------------------------------------------------|X2
B|-------------7-------------------------------------------------------------|
G|---------------7---------------7-7-7-7-------------------------------------|
D|-7---------7-----7-7---------7---------------------------------------------|
A|-5-5-5-5-5-5-------5-5-5-5-5-5---------5---------5-5-5-9-----------7-7-7---|
E|---------------------------------------3-3-3-3-3-3-3-3-7-7-7-7-7-7-5-5-5---|
    |  p.m  |         | p.m   |            | p.m  |       |  p.m    |
e|---------------------------------------------------------------------------|
B|---------------------------------------------------------------------------|
G|---------------------------------------------------------------------------|
D|-7-------7-------7-7-------7-----------------------------------------------|
A|-5-5555--5-5555--5-5--5555-5--5-7-7-9------9-7------7----------------------|
E|------------------------------3-5-5-7-7777-7-5-5555-5----------------------|
     |p.m|   |p.m|      |p.m|           |p.m|    |p.m|

              h h h             h h h h
e|---------------------------------------------------------------------------|
B|-------------7-------------------------------------------------------------|
G|---------------7---------------7-7-7-7-------------------------------------|
D|-7---------7-----7-7---------7---------------------------------------------|
A|-5-5-5-5-5-5-------5-5-5-5-5-5---------5---------5-5-5-9-----------7-7-7---|
E|---------------------------------------3-3-3-3-3-3-3-3-7-7-7-7-7-7-5-5-5---|
    |  p.m  |         | p.m   |            | p.m  |       |  p.m    |

e|---------------------------------------------------------------------------|
B|---------------------------------------------------------------------------|
G|---------------------------------------------------------------------------|
D|---------------------------------------------------------------------------|
A|-5-5-5-5-5---4-4-5-5----911-12---------------------------------------------|
E|-3-3-3-3-3---2-2-3-5----7-9-10---------------------------------------------|

 Solo:
e|-------------------5-------------------------------------------------------|
B|--------5------------------------------------------------------------------|
G|-7-7-6-7----4-7-6-7--------------------------------------------------------|
D|---------7-7--------4-5-4-2-4-5-4-2-4-7-5-4--7-5-4--------4-5-7-5-4--------|
A|--------------------------------------------5-----7-5-4------------7-------|
E|--------------------------------------------------------7------------------|

e|-----------------------------------------------------------------7---------|
B|----------------------------------------------------7------8-7-7-----------|
G|------4-----------4---7-4-5-7-4-5-7-4-5-7-6-4-7-6-4-------7---9-9-8-7-6-4--|
D|-4-5-7-7-5-4---4-5-7-5-----------------------------------------------------|
A|---------------------------------------------------------------------------|
E|---------------------------------------------------------------------------|

===============================================================================
Visitez mon site web http://derfpunk.multimania.com pour trouver toutes les
autres tabs de l'album No Limits de Reset et d'autres groupes punk qu?becois. 

Reset — Double Cross

 Tabbed by: Jmage : jmage1@hotmail.com

Ok, this is my first tab, so go easy on me... I searched the web for this song
but nothing came out except the intro and the solo, so I decided to try to tab
it and, this is what I think of this song.

Author: Reset
Song: Double Cross (first Path)
x= PM
^=Harmonic


-----7^---------------------------------------|-------------------------------
------7^--------------------------------------|-------------------------------
-7-7---7^7-777-7--7-7-7-5-555-5-55-9-999-7-77-|-------------------------------
-7-7-----7-777-7--------5-555-5-55-9-999-7-77-|-2x----------------------------
-5-5-----5-555-5--------3-333-3-33-7-777-5-55-|-------------------------------
-----------xxx------------xxx--------xxx------|-------------------------------
 0:00 #1                                                                      

------------------------------------------------------------------------------
------------------------------------------------------------------------------
-7-777-7-777-7-7-7-777-7-777-7-5-77-9-999-9-99-7-777-9-99-7-5-----------------
-7-777-7-777-7-7-7-777-7-777-7-5-77-9-999-9-99-7-777-9-99-7-5-----------------
-5-555-5-555-5-5-5-555-5-555-5-3-55-7-777-7-77-5-555-7-77-5-3-----------------
---xxx---xxx-------xxx---xxx----------xxx--------xxx--------------------------
 0:10 #2                                                                      

------------------------------------------------------------------------------
------------------------------------------------------------------------------
-5-55-5-55-4-5-55-5-7-9----9--9-11-12-----------------------------------------
-5-55-5-55-4-5-55-5-7-9----9--9-11-12-----------------------------------------
-3-33-3-33-2-3-33-3-5-7----7--7-9--10-----------------------------------------
---xx---xx-----xx-------------------------------------------------------------
 0:20 #2.2                                                                    

------------------------------------------------------------------------------
------------------------------------------------------------------------------
-777-7-777-7-77---------------------------------------------------------------
-777-7-777-7-77-7-7-7-7-5-5-55-5-55-5-4-4-5-5---------------------------------
-555-5-555-5-55-7-7-7-7-5-5-55-5-55-5-4-4-5-5---------------------------------
-xxx---xxx---xx-5-5-5-5-3-3-33-3-33-3-2-2-3-3---------------------------------
 0:25 #3                    xx   xx                                           

------------------------------------------------------------------------------
------------------------------------------------------------------------------
-7-7-77-7-77-7----------------------------------------------------------------
-7-7-77-7-77-7-7-7-7-7-5-5-2-2---4----5---------------------------------------
-5-5-55-5-55-5-7-7-7-7-5-5-2-2---4----5---------------------------------------
-----xx---xx---5-5-5-5-3-3-0-0---2----3---------------------------------------
 0:35 #3.2                                                                    

------------------------------------------------------------------------------
------------------------------------------------------------------------------
-7-777-7-7-7-7-777-7-7-7-111111111111111111111111-----------------------------
-7-777-7-7-7-7-777-7-7-7-1111111111111111111111119-999-9-9-9-9-999-9-9-9-5----
-5-555-5-5-5-5-555-5-5-5-9-999-9-9-9-9-999-9-9-9-9-999-9-9-9-9-999-9-9-9-5----
---xxx---------xxx---------xxx---------xxx-------7-777-7-7-7-7-777-7-7-7-3----
 0:45 #4                                           xxx         xxx            

------------------------------------------------------------------------------
------------------------------------------------------------------------------
------------------------------------------------------------------------------
-555-5-5-5-5-555-5-555-5------------------------------------------------------
-555-5-5-5-5-555-5-555-5------------------------------------------------------
-333-3-3-3-3-333-3-333-3------------------------------------------------------
 xxx         xxx   xxx                                                        

------------------------------------------------------------------------------
------------------------------------------------------------------------------
-7-777-7-7-7-7-777-7-7-7------------------------------------------------------
-7-777-7-7-7-7-777-7-7-7-9-999-9-9-9-9-999-9-9-9-7-777-7-7-7-7-777-7-7-7-11---
-5-555-5-5-5-5-555-5-5-5-9-999-9-9-9-9-999-9-9-9-7-777-7-7-7-7-777-7-7-7-9----
-------------------------7-777-7-7-7-7-777-7-7-7-5-555-5-5-5-5-555-5-5-5------
 0:55 #4.2                                                                    

------------------------------------------------------------------------------
------------------------------------------------------------------------------
------------------------------------------------------------------------------
-1111111111111111111111-------------------------------------------------------
-999-9-9-9-9-999-9-9-9--------------------------------------------------------
------------------------------------------------------------------------------
                                                                              

-----7^---------------------|-------------------------------------------------
------7^--------------------|-------------------------------------------------
-7-7---7^-------------------|-------------------------------------------------
-7-7----7^7-7-7-7-5-5-5-9-7-|-x4----------------------------------------------
-5-5------7-7-7-7-5-5-5-9-7-|--------3-5-3------------------------------------
----------5-5-5-5-3-3-3-7-5-|----3-5-------5-3-5------------------------------
 1:05 #5                         Very NOT Sure of that one...                 

------------------------------------------------------------------------------
------------------------------------------------------------------------------
------------------------------------------------------------------------------
------------------------------------------------------------------------------
------------------------------------------------------------------------------
------------------------------------------------------------------------------
 1:25  just redo #3                                                           

------------------------------------------------------------------------------
------------------------------------------------------------------------------
------------------------------------------------------------------------------
------------------------------------------------------------------------------
------------------------------------------------------------------------------
------------------------------------------------------------------------------
 1:45 just redo #4                                                            

------------------------------------------------------------------------------
------------------------------------------------------------------------------
------------------------------------------------------------------------------
------------------------------------------------------------------------------
------------------------------------------------------------------------------
------------------------------------------------------------------------------
 2:05 just redo #5 without the rest.                                          

--------------------------------------------------------|---------------------
--------------------------------------------------------|---------------------
-7-777-7------------------------------------------------|---------------------
-7-777-7-7-7-7-9-999-9-4-4-4-5-555-5-2-4-4-4-5-555-5-2-7|2x--9--7--5----------
-5-555-5-7-7-7-9-999-9-4-4-4-5-555-5-2-4-4-4-5-555-5-2-7|----9--7--5----------
---------5-5-5-7-777-7-2-2-2-3-333-3-0-2-2-2-3-333-3-0-5|----7--5--3----------
 2:25 solo.... not able to tab it.  But here the other guitar.  #6            

-5----------------------------------------------------------------------------
--5---------------------------------------------------------------------------
---5--------------------------------------------------------------------------
------------------------------------------------------------------------------
------------------------------------------------------------------------------
------------------------------------------------------------------------------
 2:55                                                                         

------------------------------------------------------------------------------
------------------------------------------------------------------------------
-7-7-77-7-77-7-77-7-----------------------------------------------------------
-7-7-77-7-77-7-77-77-7-77-7-77-7-77-7-5-5-55-5-55-5-55-5-4-5-7----------------
-5-5-55-5-55-5-55-57-7-77-7-77-7-77-7-5-5-55-5-55-5-55-5-4-5-7----------------
-------------------5-5-55-5-55-5-55-5-3-3-33-3-33-3-33-3-2-3-5----------------
 3:07 #7                                                                      

------------------------------------------------------------------------------
------------------------------------------------------------------------------
-7-777-7-7-7-7-777-7-7-7-111111111111111111111111-----------------------------
-7-777-7-7-7-7-777-7-7-7-1111111111111111111111119-999-9-9-9-9-999-9-9-9-12---
-5-555-5-5-5-5-555-5-5-5-9-999-9-9-9-9-999-9-9-9-9-999-9-9-9-9-999-9-9-9-12---
-------------------------------------------------7-777-7-7-7-7-777-7-7-7-10---
 3:17 #8                                                                      

------------------------------------------------------------------------------
------------------------------------------------------------------------------
------------------------------------------------------------------------------
-121212-12-12-12-12-121212-12-121212-12---------------------------------------
-121212-12-12-12-12-121212-12-121212-12---------------------------------------
-101010-10-10-10-10-101010-10-101010-10---------------------------------------
                                                                              

------------------------------------------------------------------------------
------------------------------------------------------------------------------
-7-777-7-7-7-7-777-7-7-7-------------------------------------------------12---
-7-777-7-7-7-7-777-7-7-7-4-444-4-4-4-4-444-4-4-4-9-999-9-9-9-9-999-9-9-9-12---
-5-555-5-5-5-5-555-5-5-5-4-444-4-4-4-4-444-4-4-4-9-999-9-9-9-9-999-9-9-9-10---
-------------------------2-222-2-2-2-2-222-2-2-2-7-777-7-7-7-7-777-7-7-7------
 3:27 #8.2                                                                    

------------------------------------------------------------------------------
------------------------------------------------------------------------------
-121212-12-12-12-12-121212-12-12-12-------------------------------------------
-121212-12-12-12-12-121212-12-12-12-------------------------------------------
-101010-10-10-10-10-101010-10-10-10-------------------------------------------
------------------------------------------------------------------------------
                                                                              

------------------------------------------------------------------------------
------------------------------------------------------------------------------
-------------------------7-777-7-7-7-7-777-7-7-7------------------------------
-5-555-5-5-5-5-555-5-5-5-7-777-7-7-7-7-777-7-7-7-7-777-7-7-7-7-777-7-7-7-5----
-5-555-5-5-5-5-555-5-5-5-5-555-5-5-5-5-555-5-5-5-7-777-7-7-7-7-777-7-7-7-5----
-3-333-3-3-3-3-333-3-3-3-------------------------5-555-5-5-5-5-555-5-5-5-3----
 3:37 #9                                                                      

-------------------------|----------------------------------------------------
-------------------------|----------------------------------------------------
-------------------------|----------------------------------------------------
-555-5-5-5-7-777-7-7-7---|-2x-55-55-5-55-55-5---------------------------------
-555-5-5-5-7-777-7-7-7---|----55-55-5-55-55-5---------------------------------
-333-3-3-3-5-555-5-5-5---|----33-33-3-33-33-3---------------------------------
                              3:54 variation for the second time              

------------------------------------------------------------------------------
------------------------------------------------------------------------------
-77-777-99-999-11111111212-1212-119-7-----------------------------------------
-77-777-99-999-11111111212-1212-119-7-----------------------------------------
-55-555-77-777-99-999-1010-1010-9-7-5-----------------------------------------
------------------------------------------------------------------------------
 3:57   End of the first path...