Портал для гитаристов
gtars.ru

Reset — Let Me Go

 tuning D,G,C,F,E,B,

------------------------------------------------------------------------------
------------------------------------------------------------------------------
------------------------------------------------------------------------------ 
-5-5-5-5--5----5-5-5----5-5-5-5--5----5-5-5----10-10-10-10---10---10-10-10----
-5-5-5-5--5----5-5-5----5-5-5-5--5----5-5-5----10-10-10-10---10---10-10-10----
-3-3-3-3--3----3-3-3----3-3-3-3--3----3-3-3-----8--8--8--8----8----8--8--8----
Pm......                ........                ..........

------------------------------
------------------------------
------------------------------
-10-10-10-10---10----10-10-10-
-10-10-10-10---10----10-10-10-
-8--8--8--8----8-----8--8--8--
PM..........