Портал для гитаристов
gtars.ru

Reveille — Modified Lie

 Artist: Revielle
Song: Modified Lie
Album: Bleed the Sky
Tuning: Drop D

Tabbed By: Brady  (Severed714)


e----------------------------------------------------
B----------------------------------------------------
G----222-------------------111-----------------------
D--------333-222-000-22-33------333-222-000-22-33----                       
a----------------------------------------------------
D----------------------------------------------------

Its my first tab but it should be pretty accurate. 
Аккорд D

Reveille — Modified Lie

 Artist:Revielle
Song:Modified lie
Album:Bleed the Sky
Tuning:Drop D, ebGDAE

Intro   W/dist.                                       x/3
e----------------------------:--------------------------
B----------------------------:--------------------------
G----------------------------:--------------------------
D-7-7-7---3-3-3---2-2---0-2-3:-6-6-6---2-2-2---0-1-2----
A----------------------------:--------------------------
D----------------------------:--------------------------

Kick     W/heavy dist.                                 x/3
e-------------------------------------------------------
B-------------------------------------------------------
G-------------------------------------------------------
D-7--3--2--0-2-3------6--2--1--0-1-2--------------------
A-7--3--2--0-2-3------6--2--1--0-1-2--------------------
E-7--3--2--0-2-3------6--2--1--0-1-2--------------------

the verse is the same as the intro but there is a second guitar in the
verse. It goes like this:

e----11-12-----10-11----9-10----11-10-------------------
B--9---------8--------7-------8-------------------------
G-------------------------------------------------------
D-------------------------------------------------------
A-------------------------------------------------------
E-------------------------------------------------------

e-------------------------------------------------------
B-----10-9--------10--6-5-3-----------------------------
G----9----------9---------------------------------------
D--7----------7-----------------------------------------
A-------------------------------------------------------
D-------------------------------------------------------

e-------------------------------------------------------
B-------------------------------------------------------
G-------------------------------------------------------
D--7--0--3--X-X-X---------------------------------------
A--7--0--3--X-X-X---------------------------------------
D--7--0--3--X-X-X---------------------------------------

The chorus is the same as the kick. If you dont get the rythem then 
just listen to the song. It is number four on bleed the sky.