Портал для гитаристов
gtars.ru

Rhapsody — The Last Winged Unicorn

 ************************************************************************
* RHAPSODY - THE LAST WINGED UNICORN (From the album: DAWN OF VICTORY) *
************************************************************************
 Music and Words By: Turilli & Staropoli/Turilli

Transcribed By: Niclas Buss
Day tabbed: 9.12.2000
email: nbuss@ironmaiden.com

Please mail me if you can find mistakes!

-----------------------------------------

 Normal Tuning!!
                                                                        ____________
  Intro                                                                |1.
E----------------------------------------------------------------------|------------|
B----------------------------------------------------------------------|---------9~-|
G*-----------------5----5-/-5------------------------------5----5-/-5--|---------7~-|
D*--2-/-7~---------5----5-/-3----------6~---2-/-7~---------5----5-/-3--|----6h7--6~-|
A---2-/-7~---------3----3-------3p2p0--7~---2-/-7~---------3----3------|--7---------|
E---0-/-5~--4h5h7----------------------4~---0-/-5~--4h5h7--------------|------------|
 __ ___________________
   |2.                 |  Gtr.1:
E--|-------------------||-----------------------------------------------------------|
B--|---------9~--A.H.--||----------------10-12-1310-129-10~--9-10-11-8--------8-11|
G-*|---------7~---7~---||--------------9---------------------------------9----8-----|
D-*|----6h7--6~--------||-----------10-------------------------------------11-------|
A--|--7----------------||--7---7/12-------------------------------------------------|
E--|-------------------||----8------------------------------------------------------|

E---------5/10-9-10-6-10-5-10---10---10---10----10----------------------------------|
B-8-----6---------------------8----6----8----10----10-10-9-10/12-9----------9-12-9-/|
G----7------------------------------------------------------------10----10---------|
D---------------------------------------------------------------------12------------|
A-----------------------------------------------------------------------------------|
E-----------------------------------------------------------------------------------|

E-------------------------/10-12-8-12----12----12---12---12----/8---------10--------|
B-15-12----------12-15-12-------------12----10----9----7----9~----10-9-10----10-9-10|
G-------13----13--------------------------------------------------------------------|
D----------15-----------------------------------------------------------------------|
A-----------------------------------------------------------------------------------|
E-----------------------------------------------------------------------------------|

                                 Gtr.2:
E-12---------10---------------||----------------------------------------------------|
B----10-9-10----10-9-10-10~---||----------------------------------------------------|
G-----------------------------||--2---------------------------------/-6-------------|
D-----------------------------||--2---------------------------------/-7-------------|
A-----------------------------||--0-0-0-0-0-0-0-0-0-0-0-0-0-0-0-0-0-/-4-4-4-4-4-4-4-|
E-----------------------------||----------------------------------------------------|
				   pm..............................|   pm...........

E-----------------------------------------------------------------------------------|
B-----------------------------------------------------------------------------------|
G------7------------------7------------------7---/-8--------------------------8-----|
D------7------------------7------------------7---/-9--------------------------9-----|
A-4-4--5-5-5-5-5-5-5-5-5--5-5-5-5-5-5-5-5-5--5-5-/-6-6-6-6-6-6-6-6-6-6-6-6-6--6-6-6-|
E-----------------------------------------------------------------------------------|
 ....|  pm..............|  pm..............|  pm    pm......................|  pm...

							   (end Intro)    Verse 1
E----------------------------------------------------------------------||-----------|
B----------------------------------------------------------------------||-----------|
G----------------9------------------9-9-9-9-9-9-9-9--------------------||---2----2--|
D----------------9------------------9-9-9-9-9-9-9-9--------------------||---2----2--|
A-6-6-6-6-6-6-6--7-7-7-7-7-7-7-7-7--7-7-7-7-7-7-7-7--------------------||---0----0--|
E----------------------------------------------------5~-7~-8~-7~-5~~--||-----------|
  .............|  pm..............|
				        Bridge (1)				w/Fi
E-----------------------------------------------------------------------------------|
B-------------------------------------|---------------------------------------------|
G--/---5----------2----2---/-5--------|--------2----5---------3---------------------|
D--/---5----5-----2----2---/-5-----5--|---3----2----5----5----3----3----5----7----7|
A--/---3----5-----0----0---/-3-----5--|---3----0----3----5----1----3----5----7----7|
E-----------3----------------------3------1--------------3---------1----3----5----5|

 ll 1		    Bridge (2)					    Chorus
E-----------------------------------------------------------------------------------|
B-----|-----------|-----------------------------------------------|-----------------|
G-----|--Verse-2--|--------2----5---------3-----------------------|---2----2--------|
D----|-----------|---3----2----5----5----3----3----5----7----7--|---2----2---2---|
A----|-----------|---3----0----3----5----1----3----5----7----7--|---0----0---2---|
E--------------------1--------------3---------1----3----5----5---------------0---|

							    Interlude
E-----------------------------------------------------------------------------------|
B---------------------------------------------------------|-------------------------|
G--------------/--6----6----7----7------------------------|--2~~-------2-2----2----|
D-2----4----4--/--6----6----7----7---7----7----2--/--3~--|--2~~-------2-2----2----|
A-2----4----4--/--4----4----5----5---7----7----2--/--4~--|--0~~-------0-0----0-0-0|
E-0----2----2------------------------5----5----0--/--1~----------------------------|
									        pm..

E-----------------------------------------------------------------------------------|
B-----------------------------------------------------------------------------------|
G-----------2------------2------------2---------------------------------2--------2--|
D-----------2------------2------------2---------------------------------2--------2--|
A-0-0-0-0---0-0-0-0-0-0--0-0-0-0-0-0--0-0-0-0-0-0--0~-7~-12~-0~-7~-12~--0-0-0-0--0-0|
E-----------------------------------------------------------------------------------|
 ........|   pm........|  pm........|  pm........|                       pm....|  pm

E-----------------------------------------------------------------------------------|
B-----------------------------------------------------------------------------------|
G---------------------------2--------2--------2-----------7~------2-----------7~--|
D---------------------------2--------2--------2-----------7~------2-----------7~--|
A-0-0--0~-7~-12~-0~-7~-12~--0-0-0-0--0-0-0-0--0-----------5~------0-----------5~--|
E----------------------------------------------------------5~-------------------5~--|
 ....|			     pm....|  pm....|

E-----------------------------------------------------------------------------------|
B-----------------------------------------------------------------------------------|
G-----------------------------------/-2-----------------------------------7---------|
D--3--------------------------------/-2-----------------------------------7---------|
A--3--------------------------------/-0--0-0-0-0-0-0-0-0-0-0-0-0-0-0-0-0--5--5-5-5-5|
E--1--1-1-1-1-1-1-1-1-1-1-1-1-1-1-1-------------------------------------------------|
     pm............................|    pm..............................|   pm......

E-----------------------------------------------------------------------------------|
B-----------------------------------------------------------------------------------|
G--------------------------2---------------2---------------------------------------|
D--------------------------2---------------2--------------/-3----------------------|
A-5-5-5-5-5-5-5-5-5-5-5-5--0--0-0-0-0-0-0--0--0-0-0-2-3---/-3----------------------|
E--------------------------------------------------------0-/-1--1-1-1-1-1-1-1-1-1-1-|
 ........................|   pm...........|   pm..|            pm...................

E-----------------------------------------------------------------------------------|
B-----------------------------------------------------------------------------------|
G--------------/-5-----------------------------------9------------------------------|
D--------------/-5-----------------------------------9------------------------------|
A--------------/-3--3-3-3-3-3-3-3-3-3-3-3-3-3-3-3-3--7--7-7-7-7-7-7-7-7-7-7-7-7-7-7-|
E-1-1-1-1-1-1-----------------------------------------------------------------------|
 ............|     pm..............................|   pm...........................

E-----------------------------------------------------------------------------------|
B--------------------------------------------|--------------------------------------|
G--------------------------------------------|--------------------------------------|
D-------5-----------------------------------|--3-----------------------------------|
A-7-7---5-----------------------------------|--3-----------------------------------|
E-------3--3-3-3-3-3-3-3-3-3-3-3-3-3-3-3-3-----1-1-1-1-1-1-1-1-1-1-1-1-1-1-1-1-1-1-|
 ....|     pm..............................|     pm.................................

E-----------------------------------------------------------------------------------|
B-----------------------------------------------------------------------------------|
G--------------------------------/-2------------------------------------------------|
D--------------------------------/-2------------------------------------------------|
A--------------------------------/-0-0-0-0-0-0-0-0-0-0-0-0-0-0-0-0-0-0-0-0-0-0-0-0-0|
E-1-1-1-1-1-1-1-1-1-1-1-1-1-1-1-----------------------------------------------------|
 ..............................|    pm..............................................

E-----------------------------------------------------------------------------------|
B-----------------------------------------------------------------------------------|
G------------------------7----------------------------------------------------------|
D------------------------7----------------------------------------------------------|
A-0-0-0-0-0-0-0-0-0-0-0--5-5-5-5-5-5-5-5-5-5-5-5-5-5-5-5-5-5-5-5-5-5-5-5-5-5-5-5-5-5|
E-----------------------------------------------------------------------------------|
 ......................|  pm........................................................

E-----------------------------------------------------------------------------------|
B-----------------------------------------------------------------------------------|
G--------2-------------------------------------------------------------------------|
D--------2---------------------------------------------------------------3---------|
A-5-5-5--
Аккорд A---2-Аккорд E---0-Аккорд AАккорд HАккорд G--Аккорд D--Аккорд A--