Портал для гитаристов
gtars.ru

Rhapsody — Warrior Of Ice

 RHAPSODY - WARRIOR OF ICE
Music:Staropoli and Turilli

Transcribed By: Niclas Buss

Email: Nbjbuss@hotmail.com

Please mail me if you find mistakes!

Normal Tuning (EBGDAE)!

E---------------------------------------------------------------------------------|
B---------------------------------------------------------------------------------|
G---------------------------------------------------------------------------------|
D--4---3---------4-------4-------2---4----4---3---------4---4-------7-------------|
A--2---1---4--4--2---2---2---5---0---2----2---1---4--4--2---2---5---5---4~--4--4--|
E----------2--2------0-------3--------------------2--2----------3-------2~--2--2--|

E---------------------------------------------------------------------------------|
B--------|------------------------------------------------------------------------|
G--------|------------------------------------------------------------------------|
D--------|----4-4-4-0-0-4--4---------------------4-4-4-4-1-1-4-4------------------|
A--4~~---|--2--------------2--4-4-4-4-0-0-4---4--2-------------2--4-4-4-4-0-0-4---|
E--2~~------------------------2---------------2-------------------2---------------|
	     pm..........|     pm...........|     pm..........|    pm..........|

  Riff 1								      end
E---------------------------------------------------------------------------------|
B---------------------------------------------------------------------------------|
G*--------------------------------------------------------------------------------|
D*--------------------------------------------------------------------------------|
A---2-2-2-5-5-5-4-4-4-2-2-2-0----------------------------2-2-2-5-5-5-4-2-4-5--2---|
E-----------------------------2-2-2-5-5-5-4-4-4-2-2-2-0-----------------------0---|
   pm.......................................................................|

 Riff 1
E---------------------------------------------------------------------------------|
B--(x2)|--------------------------------------------------------------------------|
G-----*|--------------------------------------------------------------------------|
D-----*|--3-----------------------------------------------------------------------|
A--4---|--1--2--2-2-2--2-2-2--2-2-2--2--2-2-2--2-2-2--2-2-2--2--2-2-2--2-2-2--2-2-|
E--2------------------------------------------------------------------------------|
		pm...................| pm...................|   pm................

E---------------------------------------------------------------------------------|
B---------------------------------------------------------------------------------|
G---------------------------------------------------------------------------------|
D---------------------------------------------------------------------------------|
A2-5--5-5-5--5-5-5--5-5-5--2--2-2-2--2-2-2--2-2-2--2--2-2-2--2-2-2--2-2-2--2--2-2-|
E---------------------------------------------------------------------------------|
 .| pm....................| pm...................|  pm...................|   pm...

E---------------------------------------------------------------------------------|
B---------------------------------------------------------------------------------|
G---------------------------------------------------------------------------------|
D---------------------------------------------------------------------------------|
A-2--2-2-2--2-2-2--2--2-2-2--2-2-2--2-2-2--5--5-5-5--5-5-5--5-5-5--2--2-2-2--2-2-2|
E---------------------------------------------------------------------------------|
 ................|   pm..................|   pm..................|  pm............

					       Verse 1
E---------------------------------------------------------------------------------|
B--------------------------------------------|------------------------------------|
G------------------------------------6--11~--|*-----------------------------------|
D----------9--9--9----------------3--4---8~--|*-----------------------------------|
A--2-2-2---7--7--7---9--9--9---4--1----------|--2-2-2-4-4-4-5-5-5-5--2-2-2--------|
E--------------------7--7--7---2-------------------------------------------5-5-5-2|
 .......| 				       pm.................................

E---------------------------------------------------------------------------------|
B---------------------------------------------------------------------------------|
G--------------------------------4h5p4--------------------------------------------|
D--------------------------------------4h5p2-------------------------------------|
A-------5-5-5-5---------2--2-2-2--------------2-2-2-4-4-4-5-5-5--2-2-2--2-2-2--2-2|
E-2-2-2---------5-5-5-5-----------------------------------------------------------|
 ...............................|	     pm...................................

					   x2  Bridge
E--------------------------------------------------------------------------------|
B---------------------------------------------|----------------------------------|
G--------------------------------------------*|----------------------------------|
D--------------------------------------------*|--5-------4-------5---9--10--11-|
A-2--2-2-2--5-5-5-5---------2-5-4-2-1-----1---|--3---4---2---5---3---7---8---9-|
E-------------------5-5-5-5-----------2-4-------------2--------3-----------------|
 ...........................................|						

  Chorus
E--------------------------------------------------------------------------------|
B--------------------------------------------------------------------------------|
G--------------------------------------------------------------------------------|
D--4---4-2-2-----------------------------------------------------------4---4-2-2-|
A--2---2-0-0--3-3-3--3-3-3--3-3-3--3-3-3-/7-7-7--7-7-7--7-7-7--7-7-7---2---2-0-0-|
E--------------------------------------------------------------------------------|
	     pm.....................................................|

	     Riff 2
E--------------------------------------------------------------------------------|
B----------|---------------------------------------------------------------------|
G----------|---------------------------------------------------------------------|
D----------|---------------------------------------------------------------------|
A--5---4---|--5-5-5-7-7-7-8-8-8-5-5-5-----------------------------5-5-5-8-8-8-7-5|
E--3---2------------------------------8-5-5-5-8-8-8-7-7-7-5-5-5-3----------------|
	     ,pm.................................................................

  end Riff 2             Verse 2							
E--------------------------------------------------------------------------------|
B------------|----------|--------------------------------------------------------|
G------------|--Riff-1--|--------------------------------------------------------|
D------------|----------|--------------------------------------------------------|
A-7-8--5--7--|----------|--2-2-2-4-4-4-5-5-5-5--2-2-2----------------5-5-5-5-----|
E------3--5-------------------------------------------5-5-5-2-2-2-2----------5-5-|
 ....|		 	  pm.....................................................

E--------------------------------------------------------------------------------|
B--------------------------------------------------------------------------------|
G--------------4h5p4-------------------------------------------------------------|
D--------------------4h5p4p2---------------------4-4-4-5-5-5-4-4-4--------------|
A-----2--2-2-2----------------2-2-2-4-4-4-5-5-5-5--------------------5-5-5-5-----|
E-5-5------------------------------------------------------------------------5-5-|
 .............|              pm..................................................

E--------------------------------------------------------------------------------|
B--------------------------------------------------------------------------------|
G--------------------------------------------------------------------------------|
D--------------------------------------------------------------------------------|
A-----2-5-4-2-1-----1-----2-2-2-4-4-4-5-5-5-5--2-2-2----------------5-5-5-5------|
E-5-5-----------2-4----------------------------------5-5-5-2-2-2-2-----------5-5-|
 ....................|  pm.......................................................

E--------------------------------------------------------------------------------|
B--------------------------------------------------------------------------------|
G---------------4h5p4------------------------------------------------------------|
D---------------------4h5p4p2---------------------------------------------------|
A-----2--2-2-2-----------------2-2-2-4-4-4-5-5-5-5--2-2-2----------------5-5-5-5-|
E-5-5-----------------------------------------------------5-5-5-2-2-2-2----------|
 .............|               pm.................................................

E--------------------------------------------------------------------------------|
B--------------------------|----------|----------|----------|----------|---------|
G--------------------------|--Bridge--|--Chorus--|--Riff-2--|--Riff-1--|*--------|
D--------------------------|----------|----------|----------|----------|*--4-----|
A---------2-5-4-2-1-----1--|----------|----------|----------|----------|---2---4-|
E-5-5-5-5-----------2-4--------------------------------------------------------2-|
 ........................|    
				    x2		 
E--------------------------------------------------------------------------------|
B-----Gtr.2:---------------------------|----------|------------------------------|
G-----------4-6-7-6-4-----4-----------*|--Harp&---|------------------------------|
D---------4-----7---7-4-4-4-6---6/8~--*|--Vocals--|------------------------------|
A-7---5---2-----5---5-2---2-----4------|----------|------------------------2-5-5-|
E-5---3-------------------0-----2--------------------3-3-3-3-3-3-3-3-3-3-5-------|
						    pm...........................

E--------------------------------------------------------------------------------|
B--------------------------------------------------------------------------------|
G--------------------------------------------------------------------------------|
D--------------------------------------------------------------------------------|
A-5-5-5-5-5-5-5-5-5-5-5-5-7-7-7-7-7-7-7-7-7-7-2-2-2-2-2-2-2-2-2-2-4-5-4-2-------|
E--------------------------------------------------------------------------5-3--3|
 ................................................................................

E--------------------------------------------------------------------------------|
B--------------------------------------------------------------------------------|
G-------------------------------------------------------------------------4-2----|
D--------------------------------------------------------------2-2------------5-4|
A-----------------------2-5-5-5-5-5-5-5-5-5-5-5-5-