Портал для гитаристов
gtars.ru

Rhapsody — When Demons Awake

 ***************************************************************************
* RHAPSODY - WHEN DEMONS AWAKE (From the Album: POWER OF THE DRAGONFLAME) *
***************************************************************************
 Music and Words By: Turilli & Staropoli/Turilli

Transcribed By: Niclas Buss
Days tabbed: 19,30.4.2002
Homepage: http://www.metalprovider.com/thedarktower
email: thetabber@yahoo.se

Please mail me if you can find mistakes!

-----------------------------------------

 Normal Tuning!!

E-----------------------------------------------------------------------------------|
B-----------------|-----------------------------------------------------------------|
G--Strings-Intro--|-----/-2-------/-6-------/-2------/-9----------/-2--------/-6----|
D----(9-sec)------|---2-/-2-----7-/-6-----2-/-2----7-/-9---8~---2-/-2------7-/-6----|
A-----------------|---2-/-0-----7-/-4-----2-/-0----7-/-7---8~---2-/-0------7-/-4----|
E---------------------0---------5---------0--------5-------6~---0----------5--------|

                                Riff 1
E-----------------------------------------------------------------------------------|
B----------------------------|------------------------------------------------------|
G----/-2------/-9------------|*-----------------------------------------------------|
D--2-/-2----7-/-9---8~-------|*-----------------------------------------------------|
A--2-/-0----7-/-7---8~-------|---0-2p0-2p0-3p0-3p0-0-0-/5-5-3-3-2-2--0-2p0-2p0-3p0-3|
E--0--------5-------6~--x----------------------------------------------------------|
                                pm..................................................

E-----------------------------------------------------------------------------------|
B-----------------------------------------------------------------------------------|
G-----------------------------------------------------------------------------------|
D------------------------------------------/2-2-------------------------------------|
Ap0-0-0/2-2
Аккорд G----/-2------Аккорд D--2-Аккорд A--2-Аккорд G--------Аккорд D--------Аккорд A-5-7-7--Аккорд D-----AАккорд HАккорд E-----Аккорд A-Аккорд G-----Аккорд D---7-Аккорд A---7-Аккорд A