Портал для гитаристов
gtars.ru

Red Hot Chili Peppers — Aeroplane (bass)

  Gtr I
G|---------|---------0/-|-17------(17)-17-|-(17)-------------|
D|---------|------------|-----------------|------17----------|
A|---------|------------|-----------------|---------------15-|
E|---------|------------|-----------------|------------------|
 
G|-------------------|---------------|
D|-15----(15)--------|---------------|
A|-------------------|------------9/-|
E|-------------15-10-|-8------(8)----|

G|--------------12-|-17------21----19----17-|
D|-----------------|------17----17----17----|
A|-15------(15)----|------------------------|
E|-----------------|------------------------|

G|-17------(17)----|
D|--------------17-|
A|-----------------|
E|-----------------|

G|----------------------------------------------------|
D|----------------------------------------------------|
A|-15h17p15h17p15h17p15h17p15h17p15h17p15h17p15--(15)-|
E|----------------------------------------------------|

G|---------------|
D|---------------|
A|-----------0-1-|
E|-15---(15)-----|

G|--------------|-------------|--------------------|-----------|
D|--------------|-------------|----0-0-0-1-1-1-3-3-|-3-(3)-----|
A|3-(3)-----4s10|(10)-(10)-0-1|3-3-----------------|-------0-1-|
E|------0-1-----|-------------|--------------------|-----------|

G|-----------|-------------|-------------|---------------------|
D|-----------|-------------|-------------|---------------------|
A|-3-(3)-----|----0--1--3--|-3---3-------|---0-0-1-1-3-3-3-3-3-|
E|-------0-1-|-3-----------|-------0-1---|-3-------------------|

G|-----------------0---------|---------------------|
D|-----0-0-1-1-2-3---3-1-----|---------------------|
A|-3-3-------------------3-1-|---0-0-1-1-3-3-3-3-3-|
E|---------------------------|-3-------------------|

G|-----------------------0-|
D|-----0-0-1-1---1---3-----|
A|-3-3---------3---3---3---|
E|-------------------------|

 Gtr II
G|----------------7------|-----5--5----------------|
D|---5--5-------5---5----|----------------3--5---5-|
A|--------------------4--|-3-3------5--6-----------|
E|-3------5--6-----------|-------------------------|

G|----------------7------|---5-----------3------|
D|---5--5-------5---5----|------------3---------|
A|--------------------4--|-3-----3-5--------3-3-|
E|-3------5--6-----------|----------------------|

G|------------------7------|-----5------------------|
D|-----5--5-------5---5----|--------------3---3-----|
A|----------------------4--|-3-3-----3-5----------3-|
E|-3-3------5--6-----------|------------------------|

G|--------------------7---6-|------5-------------8---7-|
D|-----5---5------------5---|--------------------------|
A|--------------------------|-3--3-----3--5---6----5---|
E|-3-3--------5--6--3-------|--------------------------|

G|----------------7------|----5--------------------|
D|---5--5-------5---5----|---------------3---5---5-|
A|--------------------4--|-3-----3-5--6------------|
E|-3------5--6-----------|-------------------------|

G|----------------7------|----5------------------|
D|---5--5-------5---5----|-----------------------|
A|--------------------4--|-3-------------1---1---|
E|-3------5--6-----------|--------1--4---------3-|

G|------------------3--------|------5--5---------------|
D|-----5---5-----------------|-----------------3--5--5-|
A|------------------------2--|-3--3------5--6----------|
E|-3-3--------5--6----6-3----|-------------------------|

G|----------------7------|---5-5--------|
D|---5--5-------5---5----|--------------|
A|--------------------4--|-3-----5--6-7-|
E|-3------5--6-----------|--------------|

 Gtr I
G|-----------------------|-------------------|-0---(0)-----|
D|-----------------------|---------------3---|-------------|
A|-----------------------|-------------------|---------0-1-|
E|-----------------------|-------------------|-------------|

 Gtr I
G|---------------|---------------|---------------6-|-----------|
D|---------------|---------------|-----0-0-0-1-1---|-3-(3)-----|
A|-3-(3)-----4s10|-(10)-(10)-0-1-|-3-3-------------|-------0-1-|
E|-------0-1-----|---------------|-----------------|-----------|

G|---------------|-0--2--3--5--|-5-5-5-5-5-5-5-------------|
D|---------------|-------------|---------------------------|
A|-3---(3)-------|-------------|---------------------------|
E|---------0-1---|-------------|---------------0-1-1-1-1-2-|

G|-------------------------------|
D|-------------------------------|
A|-------0-0-0-1-1-1-3-3-3-3-3-3-|
E|-3-3-3-------------------------|

G|-----------------------0-------|-0-2-3-5-5-|
D|-------0-0-0-1-1-1-2-3---3-0-3-|-----------|
A|-3-3-3-------------------------|-----------|
E|-------------------------------|-----------|

G|-5-7-8-12-12-12-12-12-12-12-12-|
D|-------------------------------|
A|-------------------------------|
E|-------------------------------|

 Gtr II
G|----------------7------|-----5--5----------------|
D|---5--5-------5---5----|----------------3--5---5-|
A|--------------------4--|-3-3------5--6-----------|
E|-3------5--6-----------|-------------------------|

G|----------------7------|-----5------------------------|
D|---5--5-------5---5----|------------------------------|
A|--------------------4--|-3-3--------------1---3-------|
E|-3------5--6-----------|--------6-1-1--3----3---0-1-2-|

G|--------------------7------|-----5------------------|
D|-----5---5--------5---5----|--------------5---5---5-|
A|---------------1--------4--|-3-3----5--6------------|
E|-3-3--------5--------------|------------------------|

G|----------------7-----|-----5------8-------|
D|---5--5-------5---5---|------------------6-|
A|--------------------4-|-3-3----------------|
E|-3------5--6----------|----------8-----6---|

G|----------------7------|-----5--5----------------|
D|---5--5-------5---5----|----------------3--5---5-|
A|--------------------4--|-3-3------5--6-----------|
E|-3------5--6-----------|-------------------------|

G|----------------7------|-----5---------------------|
D|---5--5-------5---5----|-------------------5-------|
A|--------------------4--|-3-3------3--6---8-------3-|
E|-3------5--6-----------|--------6------------3-6---|

G|-------------------------|---5-------------5---6--7-|
D|---5-----------8---8-----|-------------3------------|
A|-------------------------|-3-----3-3-5--------------|
E|-3-----3-5--6---------6--|--------------------------|

G|------------------------|---5---5---------|
D|---5-----------8---8----|-----------------|
A|------------------------|-3--------5--6-7-|
E|-3-----3-5--6---------6-|-----------------|

 Gtr I
G|-----------------------|---------------|
D|-----------------------|---------------|
A|-----------------------|-10---(10)-----|
E|------------------13---|-----------5-6-|

 Gtr I
G|-------------------|-----------------|
D|-------------------|-----------------|
A|-3---(3)------4s10-|-(10)---(10)-0-1-|
E|---------0-1-------|-----------------|

G|--------0-3-0-8-8-8-7-5-|-------------|
D|------------------------|-3---(3)-----|
A|-3--(3)-----------------|---------0-1-|
E|------------------------|-------------|

G|---------------|-------------|---------------------|
D|---------------|-------------|---------------------|
A|-3---(3)-------|----0--1--3--|-3---(3)-------0-1-3-|
E|---------0-1---|-3-----------|---------0-1-3-------|

G|-----------------|-------------|---------------|
D|-----------------|--5---5------|---------------|
A|-6--6-----8--8---|-------------|-6--6-----8--8-|
E|-----------------|-------------|---------------|

G|-------------|-------------10---|--0--7-10-7-12-10-12-10----|
D|--5---5------|------------------|------------------------12-|
A|-------------|-6--6-----8-------|---------------------------|
E|-------------|------------------|---------------------------|

G|--------8-----10-|-----7-10-10-7-12-10----|------------------|
D|-----------------|---------------------12-|---------------10-|
A|-----------8-----|-10---------------------|-----------8------|
E|-11--11----------|------------------------|-11--11-----------|

G|------7-10-7-12--15--12-----|-------------------|--0---0---0-|
D|------------------------12--|-------------------|------------|
A|--10------------------------|------------8--8---|------------|
E|----------------------------|-11--11------------|------------|

G|-----------------|-----------------|---------------|
D|-----------------|-----------------|---------------|
A|-----------0-1---|-3---(3)------4/-|-10---(10)-0-1-|
E|-15---(15)-------|---------0-1-----|---------------|

G|---------------------1s5--|---------------|-------------|
D|--------------------------|-3---(3)-------|-------------|
A|-3------1-0----10s3-------|---------0-1---|-3---(3)-----|
E|---3s8-------3------------|---------------|---------0-1-|

G|-------------|-------------|-----3--4---------0-(0)-----|
D|-------------|-------------|------------3---0-------3-0-|
A|----0--1--3--|-3---3-------|----------------------------|
E|-3-----------|-------0-1---|-3--------------------------|

G|-------------------------------------|-----------------------|
D|-------------------------------------|-----------------------|
A|-3---1-(1)---3-(3)-1-----------------|-----------------------|
E|---3-------3---------3-0-(0)-0-1-(1)-|-3-3-1-1--3-(3)-4s15s4-|

G|------------------------------------------|
D|-------------------------------------0----|
A|-3-(3)-3-3-1-(1)-1-1-----3-----4----------|
E|----------------------3-----3-----3-----1-|

G|-----0---------3-----|-----------------------|
D|----------3----------|-----------------------|
A|-------------------4-|-3----1----3-1---------|
E|-3-------------------|---------------3-0-0-1-|

G|-------------------3-(3)-4-------------------------|
D|-----------5-(5)-----------5-(5)---2-(2)-----------|
A|---------5-------5---------------5---------5-(5)---|
E|-3-(3)-----------------------------------3-------3-|

G|---------5----------------|
D|--------------------------|
A|-3-(3)----------4s14-14s3-|
E|--------------------------|

G|-----------------|---------------------|-0--0-2--2-3--3-4--4-|
D|-----------------|------0--0-1--1-3--3-|---------------------|
A|-----0-0-1-1-2-2-|-3--3----------------|---------------------|
E|-3-3-------------|---------------------|---------------------|

G|-5--5-7--7-8--8-10--10-|-12-(12)-12-10-(10)-10-8--8-7--7-|
D|-----------------------|---------------------------------|
A|-----------------------|---------------------------------|
E|-----------------------|---------------------------------|

G|-5-(5)-5-5-3-(3)-3-3-2-(2)-2-2-1-(1)-1-1-|
D|-----------------------------------------|
A|-----------------------------------------|
E|-----------------------------------------|

G|-0-(0)-0-0-------------------------------|
D|-----------3-(3)-3-3-1-(1)-1-1-0-(0)-0-0-|
A|-----------------------------------------|
E|-----------------------------------------|

G|-----------------------------------------|-------------------|
D|-----------------------------------------|-------------------|
A|-3-(3)-3-3-1-(1)-1-1-0-(0)-0-0-----------|-----0--0-1-1-2--2-|
E|-------------------------------4-(4)-4-4-|-3-3---------------|

G|-----------------------------------------|
D|-----------0-(0)-0-0-1-(1)-1-1-3-(3)-3-3-|
A|-3-(3)-3-3-------------------------------|
E|-----------------------------------------|

G|-0-(0)-0-2-(2)---2-3-(3)---3-4-(4)---4-|
D|---------------------------------------|
A|---------------------------------------|
E|---------------------------------------|

G|-5-(5)-5-5-7-(7)---7-8-(8)---8-10-(10)---10-|
D|--------------------------------------------|
A|--------------------------------------------|
E|--------------------------------------------|

G|-12-(12)-12-10-(10)-10-8-(8)-8-7-(7)-7-|
D|---------------------------------------|
A|---------------------------------------|
E|---------------------------------------|

G|-8-(8)-7-5-7-(7)-5-3-5-(5)-3-2-3-(3)-2-1-|
D|-----------------------------------------|
A|-----------------------------------------|
E|-----------------------------------------|

G|-0-(0)---0-------------------------------|
D|-----------3-(3)---3-1-(1)---1-0-(0)---0-|
A|-----------------------------------------|
E|-----------------------------------------|

G|-----------------------------------------|------------|------|
D|-----------------------------------------|------------|------|
A|-3-(3)-3-3-1-(1)-1-1-0-(0)-0-0-----------|------------|------|
E|-------------------------------4-(4)-4-4-|-3---3s=15--|-(15)-|

G|-------------|------------------------@-|
D|-------------|------------------------@-|
A|-------------|------------------------@-|
E|-(15)--------|-(15)------(15)-(15)----@-|