Портал для гитаристов
gtars.ru

Red Hot Chili Peppers — Blood Sugar Sex Magik

 intro
E|-----------------------------------|
B|-----------------------------------|
G|9---12-14/16-12/14-7/9---Palm mute-|
D|7---10-12/14-10/12-5/7-7-7-7-7-----|
A|-----------------------------------|
E|-----------------------------------|

E|-------------------------------|
B|-------------------------------|
G|9---11-12/14-11/12-6/7---------|
D|7---9--10/12--9/10-4/5-5-5-5-5-|
A|-------------------------------|
E|-------------------------------|

verse

A|-0-0-0-0-0-0-0-0-0-0-0-0-0-0-0-0-0

with wah, stress 3th 7th, 11th notes etc.

Riff

E|--------------------------------------|
B|--------------------------------------|
G|-------------------------7------------|
D|----------------------------9-8-7-----|
A|----------7---5--7~~~~~~-----------10-|
E|0---0--0------------------------------|

E|-------------------------------------|
B|-------------------------------------|
G|-------------------------------------|
D|-------------------------------------|
A|----------7---5--7--~~---------4---5-|
E|0---0--0------------------3--5-------|

substitute:

E|---------------------|
B|---------------------|
G|---------13---11--13-|
D|---------14---12--14-|
A|---------------------|
E|0---0--0-------------|

E|----------------13---------------------------|
B|----9--9--9--9--13 trem. -----12-12-12-12-12-|
G|---10-10-10-10--13     -----12-12-12-12-12-|
D|---10-10-10-10----------------12-12-12-12-12-|
A|----8--8--8--8----------------10-10-10-10-10-|
E|---------------------------------------------|

G|----------12---------------------12h14-12----------|
D|-14-12-14-----14-12-14---14-12-14---------14-12-14-|

ending of interlude:

G|------12b(13)-----------| wah-wah!!!!
D|--------------14-12-14--|
 

Red Hot Chili Peppers — Blood Sugar Sex Magik

 Red Hot Chili Peppers, BloodSugarSexMagik
Frank Verwijs  l.verwijs@gironet.nl 
The Tab already in this argive is wrong; this tab is from the guitartabbook of BSSM; but beware; many of the tabs in that book are wrong; for emaple Breaking The Girl. mail me if you want the right tabs of this great LP. Anyway.....

intro
------------------------------------------
------------------------------------------
-9---12-14/16-12/14-7/9---Palm mute-------
-7---10-12/14-10/12-5/7-7-7-7-7-----------
------------------------------------------
------------------------------------------

------------------------------------------
------------------------------------------
-9---11-12/14-11/12-6/7-------------------
-7---9--10/12--9/10-4/5-5-5-5-5-----------
------------------------------------------
------------------------------------------

verse

A-0-0-0-0-0-0-0-0-0-0-0-0-0-0-0-0-0

with wah, stress 3th 7th, 11th notes etc.

Riff

--------------------------------------------
--------------------------------------------
--------------------------7-----------------
-----------------------------9-8-7----------
-----------7---5--7~~~~~~-----------10------
-0---0--0-----------------------------------

--------------------------------------------
--------------------------------------------
--------------------------------------------
--------------------------------------------
-----------7---5--7--~~---------4---5------
-0---0--0------------------3--5-------------

substitute:

--------------------
--------------------
---------13---11--13
---------14---12--14
--------------------
0---0--0------------

-----------------13---------------------------
-----9--9--9--9--13 trem. -----12-12-12-12-12-
----10-10-10-10--13       -----12-12-12-12-12-
----10-10-10-10----------------12-12-12-12-12-
-----8--8--8--8----------------10-10-10-10-10-
----------------------------------------------

G----------12---------------------12h14-12----------
D-14-12-14-----14-12-14---14-12-14---------14-12-14-

ending of interlude: 

G------12b(13)----------- wah-wah!!!!
D--------------14-12-14--

 

Red Hot Chili Peppers — Blood Sugar Sex Magik

 Intro
E|----------------------------------------------------------|
B|----------------------------------------------------------|
G|-2---5------------------------2---4-----------------------|
D|-2---5------------------------2---4-----------------------|
A|-0---3--5/7-3/5-1/3-X-X-X-X-X-0---2-3/5-2/3-----X-X-X-X-X-|
E|--------------------------------------------2/3-----------|

Section: Fill
E|--------------------------------------|
B|-------8-----------------8-10-8-------|
G|-9-7-9---9-7-9-----9-7-9--------9-7-9-|
D|--------------------------------------|
A|--------------------------------------|
E|--------------------------------------|